Cure - The Lovecats Chords & Tabs

 

The Lovecats Chords & Tabs

Cure Chords & Tabs

Version: 1 Type: Tab 0 ratings
1 star 2 stars 3 stars 4 stars 5 stars
comments

The Lovecats Tab

Author/Artist: The Cure
Title: The Lovecats
Album: Japanese Whispers
Transcribed by: Harshan
Email: Hash_2046@hotmail.com

Most of these bits are roughly the piano bits or some other instrument translated

... say if you wanted to play it with a band or something you could play it on the 

guitar like this;

Intro
e|-12-12-12-10--8--8--8--8----|
B|-10-10-10-10--10-10-10-10---|
G|----------------------------|
D|----------------------------|
A|----------------------------|
E|----------------------------|

Verse
e|-0-0-0-0-----------------|
B|-1-1-1-1-3---1-1-1-1-3---|
G|-2-2-2-2-4---2-2-2-2-2---|
D|---------5---3-3-3-3-3---|
A|-------------------------|
E|-------------------------|
[ Tab from: http://www.guitartabs.cc/tabs/c/cure/the_lovecats_tab.html ]
Pre-Chorus
e|--3-3-3-5-5-5-3-3-3-8--8--8--|
B|--5-5-5-6-6-6-5-5-5-10-10-10-|
G|--5-5-5-7-7-7-5-5-5-10-10-10-|
D|-----------------------------|
A|-----------------------------|
E|-----------------------------|

Chorus
e|------------------------------------------|
B|------------------------------------------|
G|--------7-9-10-9----12-10-9-------------9-|
D|-7-9-10----------10---------10-12-10-12---|
A|------------------------------------------|
E|------------------------------------------|

e|---------------------------------------------|
B|---------------------------------------------|
G|--------7-9-10-9----12-10-9------------------|
D|-7-9-10----------10---------10-12-10-9-------|
A|---------------------------------------10-12-|
E|---------------------------------------------|
Comments