Cure - The Figurehead Chords & Tabs

 

The Figurehead Chords & Tabs

Cure Chords & Tabs

Version: 1 Type: Tab 0 ratings
1 star 2 stars 3 stars 4 stars 5 stars
comments

The Figurehead Tab

The Figurehead – The Cure

Part 1 (4x) 
|--------------|--------|--------|--------|
|-----------1--|--------|--------|--------|
|--------0-----|--------|--------|--------|  
|-----1--------|--------|--------|--------|
|--3-----------|--------|--------|--------|
|--------------|--------|--------|--------|


Part 2 (2x)
|--------------|--------|---------------------|--------|
|----------1---|--------|---------------------|--------|
|-------0------|--------|----------3----------|--------|         
|----1---------|--------|-------0-------0-----|--------|
|-3------------|--------|----3-------------3--|--------|
|--------------|--------|-1-------------------|--------|


Part 3 (2x)
|------------------|------------------|---------------------|
|----------1-------|----------3-------|---------------------|
|-------0-------0--|-------0-------0—-|----------3----------|
|----1-------------|----3-------------|-------0-------0-----|
|-3----------------|-1----------------|----3-------------3--|
|------------------|------------------|-1-------------------|
|
|
|
|------------------|------------------|---------------------|
|-----1--3--4------|-----1--3--4------|---------------------|
|------------------|------------------|------1------3-------|
|------------------|------------------|---------------------|
|------------------|------------------|---------------------|
|------------------|------------------|---------------------|


|---------------------|
|---------------------|
|----------0----------|   
|-------0-------0-----|
|----3-------------3--|
|-4-------------------|
|
|
|
|---------------------|
|---------------------|
|---------------------|
|---------------------|
|---------------------|
|---------------------|
Part 4 (4x)
|------------------|------------------|---------------------|
|----------1-------|----------3-------|---------------------|
|-------0-------0--|-------0-------0—-|----------3----------|
|----1-------------|----3-------------|-------0-------0-----|
|-3----------------|-1----------------|----3-------------3--|
|------------------|------------------|-1-------------------|



|---------------------|
|---------------------|
|----------0----------|   
|-------0-------0-----|
|----3-------------3--|
|-4-------------------|


Part 5 (4x)
|------------------|------------------|
|----------1-------|------------------|
|-------0-------0--|----------0-------|
|----1-------------|-------4-------4--|
|-3----------------|----3-------------|
|------------------|-2----------------|
|
|
|
|------------------|-----2--3--2------|
|-----1--3--4------|------------------|
|------------------|------------------|
|------------------|------------------|
|------------------|------------------|
|------------------|------------------|


Part 6
|------------------|------------------|---------------------|
|----------1-------|----------3-------|---------------------|
|-------0-------0--|-------0-------0—-|----------3----------|
|----1-------------|----3-------------|-------0-------0-----|
|-3----------------|-1----------------|----3-------------3--|
|------------------|------------------|-1-------------------|
|
|
|
|------------------|------------------|---------------------|
|-----1--3--4------|-----1--3--4------|---------------------|
|------------------|------------------|------1------3-------|
|------------------|------------------|---------------------|
|------------------|------------------|---------------------|
|------------------|------------------|---------------------|

|---------------------|
|---------------------|
|----------0----------|   
|-------0-------0-----|
|----3-------------3--|
|-4-------------------|
|
|
|
|---------------------|
|---------------------|
|---------------------|
|---------------------|
|---------------------|
|---------------------|



|------------------|------------------|---------------------|
|----------1-------|----------3-------|---------------------|
|-------0-------0--|-------0-------0—-|----------3----------|
|----1-------------|----3-------------|-------0-------0-----|
|-3----------------|-1----------------|----3-------------3--|
|------------------|------------------|-1-------------------|
|
|
|
|------------------|------------------|-------------3-------|
|-----1--3--4------|-----1--3--4------|---------------------|
|------------------|------------------|------1--------------|
|------------------|------------------|---------------------|
|------------------|------------------|---------------------|
|------------------|------------------|---------------------|




|---------------------|
|---------------------|
|----------0----------|   
|-------0-------0-----|
|----3-------------3--|
|-4-------------------|
|
|
|
|-----1---------------|
|--------4--3---------|
|---------------------|
|---------------------|
|---------------------|
|---------------------|


|------------------|------------------|---------------------|
|----------1-------|----------3-------|---------------------|
|-------0-------0--|-------0-------0—-|----------3----------|
|----1-------------|----3-------------|-------0-------0-----|
|-3----------------|-1----------------|----3-------------3--|
|------------------|------------------|-1-------------------|
|
|
|
|------------------|------------------|---------------------|
|-----1--3--4------|-----6--4--3------|-----1--3--4---------|
|------------------|------------------|---------------------|
|------------------|------------------|---------------------|
|------------------|------------------|---------------------|
|------------------|------------------|---------------------|



|---------------------|
|---------------------|
|----------0----------|   
|-------0-------0-----|
|----3-------------3--|
|-4-------------------|
|
|
|
|---------------------|
|-----6--4--3---------|
|---------------------|
|---------------------|
|---------------------|
|---------------------|



|------------------|------------------|---------------------|
|----------1-------|----------3-------|---------------------|
|-------0-------0--|-------0-------0—-|----------3----------|
|----1-------------|----3-------------|-------0-------0-----|
|-3----------------|-1----------------|----3-------------3--|
|------------------|------------------|-1-------------------|
|
|
|
|------------------|------------------|-------------3-------|
|-----1--3--4------|-----1--3--4------|---------------------|
|------------------|------------------|------1--------------|
|------------------|------------------|---------------------|
|------------------|------------------|---------------------|
|------------------|------------------|---------------------|

[ Tab from: http://www.guitartabs.cc/tabs/c/cure/the_figurehead_tab.html ]
|---------------------|
|---------------------|
|----------0----------|   
|-------0-------0-----|
|----3-------------3--|
|-4-------------------|
|
|
|
|-----1---------------|
|--------4--3---------|
|---------------------|
|---------------------|
|---------------------|
|---------------------|



Part 7 (4x)
|------------------|------------------|---------------------|
|----------1-------|----------3-------|---------------------|
|-------0-------0--|-------0-------0—-|----------3----------|
|----1-------------|----3-------------|-------0-------0-----|
|-3----------------|-1----------------|----3-------------3--|
|------------------|------------------|-1-------------------|



|---------------------|
|---------------------|
|----------0----------|   
|-------0-------0-----|
|----3-------------3--|
|-4-------------------|


Part 8 (4x)
|------------------|------------------|
|----------1-------|------------------|
|-------0-------0--|----------0-------|
|----1-------------|-------4-------4--|
|-3----------------|----3-------------|
|------------------|-2----------------|
|
|
|
|------------------|-----2--3--2------|
|-----1--3--4------|------------------|
|------------------|------------------|
|------------------|------------------|
|------------------|------------------|
|------------------|------------------|

Part 9 (4x)
|-----------------------|-----------------------|
|-----------------------|-----------------------|
|-----------------------|----------0----0-------|  
|----8--8--9----9--8----|-------4----------4----|
|-6---------------------|----3------------------|
|-----------------------|-2---------------------|
|
|
|
|------11--14--11-------|-----------------------|
|-----------------------|--------7--8--7--------|
|-----------------------|-----------------------|
|-----------------------|-----------------------|
|-----------------------|-----------------------|
|-----------------------|-----------------------|


Part 10 (8x)
|--------------------|
|--------------------|
|----------1----0----|   
|-------3------------|
|----3---------------|
|-1------------------|
|
|
|
|--------------------|
|-----6--9--8--------|
|--------------------|
|--------------------|
|--------------------|
|--------------------|


Part 11 (2x)
|------------------|------------------|---------------------|
|----------1-------|----------3-------|---------------------|
|-------0-------0--|-------0-------0—-|----------3----------|
|----1-------------|----3-------------|-------0-------0-----|
|-3----------------|-1----------------|----3-------------3--|
|------------------|------------------|-1-------------------|
|
|
|
|------------------|------------------|---------------------|
|-----1--3--4------|-----6--8--11-----|----------9----------|
|------------------|------------------|---------------------|
|------------------|------------------|---------------------|
|------------------|------------------|---------------------|
|------------------|------------------|---------------------|

|---------------------|
|---------------------|
|----------0----------|   
|-------0-------0-----|
|----3-------------3--|
|-4-------------------|
|
|
|
|---------------------|
|---------------------|
|---------------------|
|---------------------|
|---------------------|
|---------------------|


Part 12
|------------------|------------------|---------------------|
|----------1-------|----------3-------|---------------------|
|-------0-------0--|-------0-------0—-|----------3----------|
|----1-------------|----3-------------|-------0-------0-----|
|-3----------------|-1----------------|----3-------------3--|
|------------------|------------------|-1-------------------|
|
|
|
|------------------|------------------|---------------------|
|-----1--3--4------|-----6--4--3------|-----1--3--4---------|
|------------------|------------------|---------------------|
|------------------|------------------|---------------------|
|------------------|------------------|---------------------|
|------------------|------------------|---------------------|



|---------------------|
|---------------------|
|----------0----------|   
|-------0-------0-----|
|----3-------------3--|
|-4-------------------|
|
|
|
|---------------------|
|-----6--4--3---------|
|---------------------|
|---------------------|
|---------------------|
|---------------------|


|------------------|------------------|---------------------|
|----------1-------|----------3-------|---------------------|
|-------0-------0--|-------0-------0—-|----------3----------|
|----1-------------|----3-------------|-------0-------0-----|
|-3----------------|-1----------------|----3-------------3--|
|------------------|------------------|-1-------------------|
|
|
|
|------------------|------------------|---------------------|
|-----1--3--4------|-----6--8--11-----|-----9--8--6---------|
|------------------|------------------|---------------------|
|------------------|------------------|---------------------|
|------------------|------------------|---------------------|
|------------------|------------------|---------------------|



|---------------------|
|---------------------|
|----------0----------|   
|-------0-------0-----|
|----3-------------3--|
|-4-------------------|
|
|
|
|---------------------|
|-----4--3------------|
|-----------3---------|
|---------------------|
|---------------------|
|---------------------|


Part 13
|---------------|
|----------1----|
|-------0-------|   
|----1----------|
|-3-------------|
|---------------|
|
|
|
|---------------|
|------1--------|
|---------------|
|---------------|
|---------------|
|---------------|


Ending (guitar and bass)
|------------------|------------------|---------------------|
|-----1--3--4------|-----1--3--4------|---------------------|
|------------------|------------------|--------1------------|
|------------------|------------------|---------------------|
|------------------|------------------|---------------------|
|------------------|------------------|---------------------|



|---------------|
|---------------|
|---------------|
|---------------|
|---------------|
|---------------|



|------------------|------------------|-------------3-------|
|-----1--3--4------|-----1--3--4------|---------------------|
|------------------|------------------|------1--------------|
|------------------|------------------|---------------------|
|------------------|------------------|---------------------|
|------------------|------------------|---------------------|



|-----1---------------|
|--------4--3---------|
|---------------------|
|---------------------|
|---------------------|
|---------------------|



|------------------|------------------|---------------------|
|-----1--3--4------|-----1--3--4------|---------------------|
|------------------|------------------|--------1------------|
|------------------|------------------|---------------------|
|------------------|------------------|---------------------|
|------------------|------------------|---------------------|



|---------------|
|---------------|
|---------------|
|---------------|
|---------------|
|---------------|
Comments