Cure - The Figurehead Chords & Tabs

 

The Figurehead Chords & Tabs

Cure Chords & Tabs

Version: 1 Type: Bass Tab

The Figurehead Bass Tab

   
THE FIGUREHEAD
The Cure

Taken from the Fiction/Elektra/Rhino album Pornography (1982/2005 Reissue)

Transcribed by: Damian Pamminger (TwitcheD_85@hotmail.com)

Standard tuning: E A D G

Fig. 1
|-----------------------------------------------------------------------|
|-----------------------------------------------------------------------|
| -3-3-3-3-3-3-3-3-1-1-1-1-1-1-1-1--------------------------------------|
| ----------------------------------1-1-1-1-1-1-1-1/-4-4-4-4-4-4-4-4----|
[ Tab from: http://www.guitartabs.cc/tabs/c/cure/the_figurehead_btab.html ]
Fig. 2
| ------------------------------------|
| ------------------------------------|
|-3-3-3-3-3-3-3-3---------------------|
|------------------2-2-2-2-2-2-2-2----|

Fig. 3
|----------------------------------------|
| ---------------------------------------|
| -6-6-6-6-6-6-6-6-\---------------------|
| --------------------2-2-2-2-2-2-2-2----|

Fig. 4
| ------------------------------------|
| ------------------------------------|
| ------------------------------------|
|-1-1-1-1-1-1-1-1-1-1-1-1-1-1-1-1-----|

End:
| -------------------|
| -------------------|
|-3-3-3-3-3-3-3-3----|
| -------------------|