Cure - The End Of The World Chords & Tabs

 

The End Of The World Chords & Tabs

Cure Chords & Tabs

Version: 3 Type: Tab 0 ratings
1 star 2 stars 3 stars 4 stars 5 stars
comments

The End Of The World Tab

this song isnt like alot of other stuff by the cure but its still good

tuning-standard-EADGBe

verse(guitar 1)

1----------------------------|
2----------------------------|
3----------------------------| x2
4-2-0-2-0--------2-0-0-------|
5--------3--0-3-0------3-----|
6----------------------------|

then

1-----------------------------|
2-----------------------------|
3-----------------------------|
4-5-3-5-3-2-----5-3-3-2-------|
5----------5-5-3--------------|
6-----------------------------|

verse-(guitar 2) palm muted

1-----------------------------|
2-----------------------------|
3-5---------------------------|
4-5---7---5---3---------------|
5-3---7---5---3---------------|
6-----5---3---1---------------|

chorus(guitar 1)

1-----------------------------|
2-----------------------------|
3-----------------------------|
4-0-0--5-3-0--0-0--5-3--------|
5----3-----------3----3-------|
6-----------------------------|
[ Tab from: http://www.guitartabs.cc/tabs/c/cure/the_end_of_the_world_tab_ver_3.html ]
chorus(guitar 2)

1-----------------------------|
2-6666-----9-9-9-9------------|
3-77777777-1010101010101010---|
4-77777777-1010101010101010---|
5-55555555-8-8-8-8-8-8-8-8----|
6-----------------------------|

bridge 1

1-----------------------------|
2-----------------------------|
3----------22222222-----------|
4-55555555-22222222-----------|
5-55555555-00000000-----------|
6-33333333--------------------|

bridge 2

1-----------------------------|
2-----------------------------|
3-33333333--------------------|
4-33333333-33333333-----------|
5-11111111-33333333-----------|
6----------11111111-----------|

bridge 3

1-----------------------------|
2-----------------------------|
3----------22222222-----------|
4-22222222-22222222-----------|
5-22222222-00000000-----------|
6-00000000--------------------|

these might be a solo in there, i just wasnt sure if i should put it because i wasnt 
if it was for guitar or keyboard.

thats all

peace
Comments