Cure - Siamese Twins Chords & Tabs

 

Siamese Twins Chords & Tabs

Cure Chords & Tabs

Version: 2 Type: Tab 0 ratings
1 star 2 stars 3 stars 4 stars 5 stars
comments

Siamese Twins Tab

   
Artist: The Cure
Song: Siamese Twins
Album: Pornography

One of my favorite songs... ;)

LEAD GUITAR

Intro:

E|---------------------------------|
B|-----1-1-1-1-1-1-1-1--1-1-0-1----|
G|-(2)--------------------------2--|
D|---------------------------------|
A|---------------------------------|
E|---------------------------------|

E|--------------------------------|
B|-1-0-1--3--1-0-1----------------|
G|-----------------2--------------|
D|--------------------------------|
A|--------------------------------|
E|--------------------------------|

E|------------------------------|
B|-1-1-1-1-1-1-1-1--1-1-0-1-----|
G|--------------------------2---|
D|------------------------------|
A|------------------------------|
E|------------------------------|

E|--------------------------------|
B|-1-0-1--3--1-0-1----------------|
G|-----------------2--------------|
D|--------------------------------|
A|--------------------------------|
E|--------------------------------|

E|--------------------------------|
B|-3-3-3-3-3-3-3-3-1--0--1--------|
G|-------------------------2------|
D|--------------------------------|
A|--------------------------------|
E|--------------------------------|

E|--------------------------------|
B|-3-3-3-3-3-3-3-3-1--0--1--------|
G|-------------------------2------|
D|--------------------------------|
A|--------------------------------|
E|--------------------------------|

E|------------------------------|
B|-1-1-1-1-1-1-1-1--1-1-0-1-----|
G|--------------------------2---|
D|------------------------------|
A|------------------------------|
E|------------------------------|

E|--------------------------------|
B|-1-0-1--3--1-0-1----------------|
G|-----------------2--------------|
D|--------------------------------|
A|--------------------------------|
E|--------------------------------|

Repeat throughout the first verse:

E|---------------------------------|
B|3--3-3-3-3-3-3--6--6-6-6-6-6-6---|
G|-------------------------------2-|
D|---------------------------------|
A|---------------------------------|
E|---------------------------------|

Between the first and second verse, play this twice:

E|------------------------------|
B|-1-1-1-1-1-1-1-1--1-1-0-1-----|
G|--------------------------2---|
D|------------------------------|
A|------------------------------|
E|------------------------------|

E|--------------------------------|
B|-1-0-1--3--1-0-1----------------|
G|-----------------2--------------|
D|--------------------------------|
A|--------------------------------|
E|--------------------------------|

Second verse:

E|---------------------------------|
B|3--3-3-3-3-3-3--6--6-6-6-6-6-6---|
G|-------------------------------2-|
D|---------------------------------|
A|---------------------------------|
E|---------------------------------|

"The Walls and the Ceiling..."

E|--------------------------------|
B|1--1-1-1-1-1-1--3--3-3-3-3-3-3--|
G|--------------------------------|
D|--------------------------------|
A|--------------------------------|
E|--------------------------------|

E|--------------------------------|
B|--------------------------------|
G|2--2-2-2-2-2-2--2--2-2-2-2-2-2--|
D|--------------------------------|
A|--------------------------------|
E|--------------------------------|

E|--------------------------------|
B|1--1-1-1-1-1-1--3--3-3-3-3-3-3--|
G|--------------------------------|
D|--------------------------------|
A|--------------------------------|
E|--------------------------------|

E|--------------------------------|
B|5--5-5-5-5-5-5--5--5-5-5-5-5-5--|
G|--------------------------------|
D|--------------------------------|
A|--------------------------------|
E|--------------------------------|

"Dancing in my pocket..."

E|--------------------------------|
B|---------------6--6-6-6-6-6-6---|
G|2--2-2-2-2-2-2------------------|
D|--------------------------------|
A|--------------------------------|
E|--------------------------------|

E|--------------------------------|
B|---------------6--6-6-6-6-6-6---|
G|2--2-2-2-2-2-2------------------|
D|--------------------------------|
A|--------------------------------|
E|--------------------------------|

E|-------------------------------|
B|----------------0--0-0-0-0-0-0-|
G|2--2-2-2-2-2-2-----------------|
D|-------------------------------|
A|-------------------------------|
E|-------------------------------|

E|--------------------------------|
B|5--5-5-5-5-5-5-5--5-5-5-5-5-5---|
G|--------------------------------|
D|--------------------------------|
A|--------------------------------|
E|--------------------------------|

Before third verse, play this twice:

E|------------------------------|
B|-1-1-1-1-1-1-1-1--1-1-0-1-----|
G|--------------------------2---|
D|------------------------------|
A|------------------------------|
E|------------------------------|

E|--------------------------------|
B|-1-0-1--3--1-0-1----------------|
G|-----------------2--------------|
D|--------------------------------|
A|--------------------------------|
E|--------------------------------|

Then:

E|--------------------------------|
B|3-3-3-3-3-3-3-3/5-5-5-5-5-5-1-1-|
G|--------------------------------|
D|--------------------------------|
A|--------------------------------|
E|--------------------------------|


E|--------------------------------|
B|3-3-3-3-3-3-3-3/5-5-5-5-5-5-0-0-|
G|--------------------------------|
D|--------------------------------|
A|--------------------------------|
E|--------------------------------|

E|---------------|
B|3-3-3-3-1-1----|
G|---------------|
D|---------------|
A|---------------|
E|---------------|
[ Tab from: http://www.guitartabs.cc/tabs/c/cure/siamese_twins_tab_ver_2.html ]
E|--------------------------------|
B|3-3-3-3-3-3-3-3/5-5-5-5-5-5-1-1-|
G|--------------------------------|
D|--------------------------------|
A|--------------------------------|
E|--------------------------------|

E|---------------------------------|
B|5-5-5-5-5-5-1-1--5-5-5-5-5-5-----|
G|-----------------------------2-2-|
D|---------------------------------|
A|---------------------------------|
E|---------------------------------|

During the third verse:

E|---------------------------------|
B|3--3-3-3-3-3-3--6--6-6-6-6-6-6---|
G|-------------------------------2-|
D|---------------------------------|
A|---------------------------------|
E|---------------------------------|

Outro:
"Sing out loud, we all die..."

E|--------------------------------|
B|-1--1-1-1-1-1-1--3--3-3-3-3-3-3-|
G|--------------------------------|
D|--------------------------------|
A|--------------------------------|
E|--------------------------------|

E|--------------------------------|
B|--------------------------------|
G|-2--2-2-2-2-2-2--2--2-2-2-2-2-2-|
D|--------------------------------|
A|--------------------------------|
E|--------------------------------|

E|-----------------------------------|
B|1/3--3-3-3-3-3-3--3/5--5-5-5-5-5-5-|
G|-----------------------------------|
D|-----------------------------------|
A|-----------------------------------|
E|-----------------------------------|

E|--------------------------------|
B|-7-----7\---------/7-----7\-----|
G|---------\3-----3/---------\3---|
D|--------------------------------|
A|--------------------------------|
E|--------------------------------|


The Outro as played on the Siamese Twins Violin Demo:

E|----------------------------------|
B|3--3-3-3--1-1--3-3--3-3-3-1-1-3-3-|
G|----------------------------------|
D|----------------------------------|
A|----------------------------------|
E|----------------------------------|

E|----------------------------|
B|-3-3-3-3-3-3/5--5-5-5-5-5-5-|
G|----------------------------|
D|----------------------------|
A|----------------------------|
E|----------------------------|

E|--------------------------------|
B|-7-----7\---------/7-----7\-----|
G|---------\3-----3/---------\3---|
D|--------------------------------|
A|--------------------------------|
E|--------------------------------|


BASS

Intro:
(Play this between the verses)

G|---------------------------------|
D|---------------------------------|
A|--------------8--8-8-8-10-8---5--|
E|5-5-5-5-5-5-5---------------8----|

G|---------------------------------|
D|---------------------------------|
A|5-5-5-5-5-5-8--8-8-8-10-8-8------|
E|---------------------------------|

During the Verses play this:

G|---------------------------------|
D|---------------------------------|
A|---------------------------------|
E|5--5-5-5-5-5-5--3--3-3-3-3-3-3---|

G|--------------------------------|
D|--------------------------------|
A|-5--5-5-5-5-5-5--8--8-8-8-8-8-8-|
E|--------------------------------|

"The walls and the ceiling move in time..."

G|--------------------------------|
D|--------------------------------|
A|3--3-3-3-3-3-3--5--5-5-5-5-5-5--|
E|--------------------------------|

G|---------------------------------|
D|---------------------------------|
A|---------------------------------|
E|5--5-5-5-5-5-5--5--5-5-5-5-5-5---|

G|--------------------------------|
D|--------------------------------|
A|3--3-3-3-3-3-3--5--5-5-5-5-5-5--|
E|--------------------------------|

G|--------------------------------|
D|--------------------------------|
A|7--7-7-7-7-7-7--7--7-7-7-7-7-7--|
E|--------------------------------|

"Dancing in my pocket"

G|--------------------------------|
D|--------------------------------|
A|---------------8--8-8-8-8-8-8---|
E|5--5-5-5-5-5-5------------------|

G|--------------------------------|
D|--------------------------------|
A|---------------8--8-8-8-8-8-8---|
E|5--5-5-5-5-5-5------------------|

G|--------------------------------|
D|--------------------------------|
A|--------------------------------|
E|5--5-5-5-5-5-5--3--3-3-3-3-3-3--|

G|--------------------------------|
D|--------------------------------|
A|--------------------------------|
E|1--1-1-1-1-1-1--1--1-1-1-1-1-1--|

Outro:
"Sing out loud we all die..."

G|--------------------------------|
D|--------------------------------|
A|3--3-3-3-3-3-3--5--5-5-5-5-5-5--|
E|--------------------------------|

G|---------------------------------|
D|---------------------------------|
A|---------------------------------|
E|5--5-5-5-5-5-5--5--5-5-5-5-5-5---|

G|--------------------------------|
D|--------------------------------|
A|3--3-3-3-3-3-3--5--5-5-5-5-5-5--|
E|--------------------------------|

G|--------------------------------|
D|--------------------------------|
A|7--7-7-7-7-7-7--7--7-7-7-7-7-7--|
E|--------------------------------|


G|--------------------------------|
D|--------------------------------|
A|--7-\-1-----1-/-7-----7-\-1-----|
E|--------------------------------|

RHYTHM GUITAR

The Rhythm Guitar plays the same riffs as the Bass, using power chords.

For example, the intro goes like this:

E|----------------------------------------------|
B|----------------------------------------------|
G|-----------------10---10--10--10--10--10--10--|
D|7--7-7-7-7-7-7---10---10--10--10--10--10--10--|
A|7--7-7-7-7-7-7---8----8---8---8---8---8---8---|
E|5--5-5-5-5-5-5--------------------------------|

E|---------------------------------------|
B|---------------------------------------|
G|7--7-7-7-7-7-7--10--10-10-10-10-10-10--|
D|7--7-7-7-7-7-7--10--10-10-10-10-10-10--|
A|5--5-5-5-5-5-5--8---8--8--8--8--8--8---|
E|---------------------------------------|


So you can just follow the bass-line to play the rest of the song...
Enjoy! :) Vaggs...
Comments