Cure - Siamese Twins Chords & Tabs

 

Siamese Twins Chords & Tabs

Cure Chords & Tabs

Version: 1 Type: Tab 0 ratings
1 star 2 stars 3 stars 4 stars 5 stars
comments

Siamese Twins Tab

   
                       Tabs/ Chords
                       Siamese Twins
                        by The Cure

Intro-

e--------------------------------------------------------------------|
B--------------------------------------------------------------------|
G--------------------------------------------------------------------|
D--------------------------------------------------------------------|
A----15--15-15-15-15-15-15-15-15-14-15-12---15-14-15-17-15-14-15-12--|
E--------------------------------------------------------------------|

e--------------------------------------------------------------------|
B--------------------------------------------------------------------|
G--------------------------------------------------------------------|
D--------------------------------------------------------------------|
A----15--15-15-15-15-15-15-15-15-14-15-12---15-14-15-17-15-14-14-12--|
E--------------------------------------------------------------------|


e------------------------------------------------------------------------|
B------------------------------------------------------------------------|
G------------------------------------------------------------------------|
D------------------------------------------------------------------------|
A---17-17-17-17-17-17-17-15-14-15-12---17-17-17-17-17-17-17-15-14-15-12--|
E------------------------------------------------------------------------|


e-----------------------------------------------------------------|
B-----------------------------------------------------------------|
G-----------------------------------------------------------------|
D-----------------------------------------------------------------|
A---15-15-15-15-15-15-15-15-15-14-15-12---15-14-15-17-15-14-14-12-|
E-----------------------------------------------------------------|

Chords/ Verse.

A5         G5        D5              F5
I chose an eternity of this,
A5         G5        D5              F5
like fallen angels, the world disapeared.
A5         G5        D5                     F5
Laughing into thw fire, is it always like this?
A5                   G5
Flesh and blood and the first kiss
D5                  F5
The first colors the first kiss

e--------------------------------------------------------------------|
B--------------------------------------------------------------------|
G--------------------------------------------------------------------|
D--------------------------------------------------------------------|
A----15-15-15-15-15-15-15-15-15-14-15-12--15-14-15-17-15-14-14-12----|
E--------------------------------------------------------------------|


A5       G5       D5              F5
We writhed under a red light
A5         G5           D5        F5
Voodoo smile, Siamese Twins
A5         G5           D5             F5
Girl at the window looks at me for an hour
A5       G5         D5       F5
Then everything falls apart
A5       G5         D5        F5
Broken inside me it falls apart

[ Tab from: http://www.guitartabs.cc/tabs/c/cure/siamese_twins_tab.html ]
C5               D5            A5
The walls and ceiling move in time
       C5                 D5
Push A Blade into my hand, slowly up the stairs
          E5
And int the room
         E5
Is it always like this?

A5            F5
Dancing in my pocket
A5            F5
Worms eat my skin
     A5                   G5
she glows and grows with arms outstreached
     E5
Her legs around me in the morning I cried

e----------------------------------------------------------------|
B----------------------------------------------------------------|
G----------------------------------------------------------------|
D----------------------------------------------------------------|
A---15-15-15-15-15-15-15-15-15-14-15-12--15-14-15-17-15-14-15-12-|
E----------------------------------------------------------------|

-
e----------------------------------------------------------------|
B----------------------------------------------------------------|
G----------------------------------------------------------------|
D----------------------------------------------------------------|
A---15-15-15-15-15-15-15-15-15-14-15-12--15-14-15-17-15-14-15-12-|
E----------------------------------------------------------------|


e--------------------------------------------------------------------------|
B--------------------------------------------------------------------------|
G--------------------------------------------------------------------------|
D--------------------------------------------------------------------------|
A--17-17-17-17-17-17-17-17-19-19-19--17-17-17-17-17-17-17-19-19-19---------|
E--------------------------------------------------------------------------|


e--------------------------------------------------------------------------|
B--------------------------------------------------------------------------|
G--------------------------------------------------------------------------|
D--------------------------------------------------------------------------|
A--17-17-17-17-17-17--15-15-15--17-17-17-17-17-19-15-----------------------|
E--------------------------------------------------------------------------|

e----------------------------------------------------------------------------|
B----------------------------------------------------------------------------|
G----------------------------------------------------------------------------|
D----------------------------------------------------------------------------|
A--17-17-17-17-17-15-17-17-17-17-17-19-12------------------------------------|
E----------------------------------------------------------------------------|


A5              G5          D5            F5
Leave me to die, you won't remember my voice
A5            G5         D5     F5
I walked away and grew old,
A5           G5         D5      F5
we never talk, we never smile
A5        G5      D5      F5
I scream you're nothing
A5       G5     D5        F5
I don't need you anymore
A5       G5
You're nothing
  D5          F5
It fades and spins
A5
Fades and spins.


C5       D5             A5
Sing out loud we all die
C5                D5
laughing into the fire
  E5                    Bb5
is it always like this?
  E5                    Bb5
is it always like this?
        (No Chord)
is it always like this?
Comments