Cure - Out Of This World Chords & Tabs

 

Out Of This World Chords & Tabs

Cure Chords & Tabs

Version: 1 Type: Chords 0 ratings
1 star 2 stars 3 stars 4 stars 5 stars
comments

Out Of This World Chords

   
Out of this World

By the Cure
from album 'bloodflowers'

transcribed by Christian Reindel(creindel@gmx.de)
any questions or corrections- e-mail me

Normal tuning (E,A,D,G,b,E)

Intro 

Em   G         (3 times)

Bm   A         (3 times)

D    C    Bm   (3 times)

A    Bm   Cis  (1 time)

D    Em        (4 times)

Lead-guitar

      D               Em          D                   Em
|------------------------------|---------------------------|
|------------------------------|---------------------------|
|---14-14-14-12-11-12^11^12----|---14-14-14--14-12-11------|
|12-------------------------12-|12-------------------12/14-|
|------------------------------|---------------------------|
|------------------------------|---------------------------|

    D                 Em            D                 Em
|------------------------------|---------------------------|
|------------------------------|---------------------------|
|---14-14-14-12-11-12^11^12----|--------------11---11------|
|12-------------------------12-|-12--12-----12---12---12/14|
|------------------------------|---------------------------|
|------------------------------|---------------------------|



Verse 1

 D                           Em
When we look back at it all  as I know we will
...

Bm                         A
And I know we have to go -I realize 

Bm                        A
we only get to stay so long
...

D                 Em
where we belong
...

Verse 2

 D                              Em
When we think back to all this and I'm sure we will
...

Bm                         A
And I know we have to go -I realize 

Bm                             A 
We always have to say goodbye 
...

D                     C       Bm
But real lives are the reason why
[ Tab from: http://www.guitartabs.cc/tabs/c/cure/out_of_this_world_crd.html ]
D                     C       Bm
We want to live another live

D                     C       Bm
We want to feel another time

A                     Bm     Cis
Another time


Piano-solo

D   Em  (4 times)

      D               Em          D                   Em
|------------------------------|---------------------------|
|------------------------------|---------------------------|
|---14-14-14-12-11-12^11^12----|---14-14-14--14-12-11------|
|12-------------------------12-|12-------------------12/14-|
|------------------------------|---------------------------|
|------------------------------|---------------------------|

    D                 Em            D                 Em
|------------------------------|---------------------------|
|------------------------------|---------------------------|
|---14-14-14-12-11-12^11^12----|--------------11---11------|
|12-------------------------12-|-12--12-----12---12---12/14|
|------------------------------|---------------------------|
|------------------------------|---------------------------|


Verse 3

 D                           Em
When we look back at it all  as I know we will
...

Bm                         A
And I know we have to go -I realize 

Bm                        A
we always have to turn away

...

D                     C       Bm
But real lives are why we stay

D                     C       Bm
for another dream   another day

D                     C       Bm
for another world   another way

A                     Bm     Cis
for another way

Outro

D                          Em
One last time before it's over

D                          Em
One last time before the end

D                          Em          D
One last time before it's time to go again


End.
Comments