Cure - Lovesong Chords & Tabs

 

Lovesong Chords & Tabs

Cure Chords & Tabs

Version: 3 Type: Tab 0 ratings
1 star 2 stars 3 stars 4 stars 5 stars
comments

Lovesong Tab

   
This is a kick ass song by The Cure, and it makes me think a lot about some girl that's 
why I like it cause the solo sort of sucks and I'm not even sure the solo is right but 
your own corrections, so fuck it here it is:

E --9----------|------------------------------------------------------------|
B --7----------|------3s5--3---5---3--1-------------------------------------|
G --7----------|---2-----------------------2--------repeat-4-times----------|
D --9----------|------------------------------------------------------------|
A -------------|------------------------------------------------------------|
E -------------|------------------------------------------------------------|

Whenever I'm alone with you
You make me feel like I am home again
Whenever I'm alone with you
You make me feel like I am whole agai

Whenever I'm alone with you
You make me feel like I am young again
Whenever I'm alone with you
You make me feel like I am fun again

(chorus)

F       G
However far away

Am         C
I will always love you
F        G
However long I stay
Am          C
I will always love you
F        G
Whatever words I say
Am         C
I will always love you

I will always love you
[ Tab from: http://www.guitartabs.cc/tabs/c/cure/lovesong_tab_ver_3.html ]
E --------------------------------------------------------------------------|
B -------3s5--3--5--3--1----------------------------------------------------|
G ----2-------------------2------Repeat-four-times--------------------------|
D --------------------------------------------------------------------------|
A --------------------------------------------------------------------------|
E --------------------------------------------------------------------------|

E ---7-7-7-7-------7-7---------7-7-7-7--------7---8s10----------------------|
B -----------8----------8--------------8-------------------8-8-8-8-8-8s10---|
G --------------5---------5-------------5-----------------------------------|
D --------------------------------------------------------------------------|
A --------------------------------------------------------------------------|
E --------------------------------------------------------------------------|

E --------------------------------------------------------------------------|
B ---------5s4-2--1-1-1-1-1-1-0---------------------------------------------|
G -------------------------------0-2----------------------------------------|
D --------------------------------------------------------------------------|
A --------------------------------------------------------------------------|
E --------------------------------------------------------------------------|

Whenever I'm alone with you
You make me feel like I am free again
Whenever I'm alone with you
You make me feel like I am clean again

  (chorus)


And that's it, hope it's not THAT bad this was the first song I tabbed and I hope to 
a lot more..
Comments