Cure - Lovesong Chords & Tabs

 

Lovesong Chords & Tabs

Cure Chords & Tabs

Version: 2 Type: Tab 0 ratings
1 star 2 stars 3 stars 4 stars 5 stars
comments

Lovesong Tab

   
Author/Artist: The Cure
Title: Love Song
Album: Galore
Transcribed by: Chief Ungamunga
Email: twinfactor@mail.com


Guitar:

Chord Played on first beat of every fourth measure...(1, 5, 9 ...ect)
|---7---|---0-----0-0-0-----|----------------------------|
|---8---|---1/3h5-3-5-3\1---|----------------------------|
|---9---|-2---------------2-|--2-4h5-5-4-2-4-4-2---------|
|---7---|-------------------|--------------------5-3-3-3-|
|-------|-------------------|----------------------------|
|-------|-------------------|----------------------------|


Starts on 5th measure, and then again throughout the song...
|---0-----0-0-0-----|
|---1/3h5-3-5-3\1---|
|-2---------------2-|
|-------------------|
|-------------------|
|-------------------|
[ Tab from: http://www.guitartabs.cc/tabs/c/cure/lovesong_tab_ver_2.html ]
Guitar Solo
|-7-7-7-7-----7-7----|7-7-7-7-----7-8/10|--------------------------|
|---------8-------8--|--------8---------|8-8-8-8h10-10-------------|
|--------------------|------------------|--------------9p7----7-9-7|
|-----------7-------7|----------7-------|------------------10------|
|--------------------|------------------|--------------------------|
|--------------------|------------------|--------------------------|
                                                                              
|-----------------|
|-----------------|
|-----------------|
|10-10-10-10-9-5-7|
|-----------------|
|-----------------|


Synth tabbed for Guitar
|----------------------------|
|----------------------------|
|--2-4h5-5-4-2-4-4-2---------|
|--------------------5-3-3-3-|
|----------------------------|
|----------------------------|                                               


Verse
Bass Line w/ chords...
  Am            G              F             E
|-------------|---------------|-------------|---------------|
|-------------|---------------|-------------|---------------|
|-------------|---------------|-------------|---------------|
|-------------|---------------|-------------|---------------|
|-------3-2-0-|---------2---3-|-------3-2-0-|---------2---3-|
|-5-5-5-------|-3-3-3-3---3---|-1-1-1-------|-0-0-0-0---0---|

Chorus
Bass Line w/ chords...
  F         G        Am         C
|---------|---------|---------|---------|
|---------|---------|---------|---------|
|---------|---------|---------|---------|
|---------|---------|---------|---------|
|---------|---------|---------|-3-3-3-3-|
|-1-1-1-1-|-3-3-3-3-|-5-5-5-5-|---------|
Comments