Cure - Lovesong Chords & Tabs

 

Lovesong Chords & Tabs

Cure Chords & Tabs

Version: 3 Type: Bass Tab 0 ratings
1 star 2 stars 3 stars 4 stars 5 stars
comments

Lovesong Bass Tab

I listened to the song closer and discovered that I made a small mistake.
The first three 7's on the verse should be open notes on the A string,
sorry about that! It sounds good either way, but much better when played right.

This is the first part to the verse
|--------------------------------------------------------|Verse Part 1
|-7-7-7-9-10-9-------------7-9-----10-9-7---------9---10-|
|--------------10-10-10-10-----8-8--------7-7-7-7---7----|
|--------------------------------------------------------|

Play this before the song goes into the chorus
|--------------------------------------------------------|Verse Part 2
|-7-7-7-9-10-9-------------7-9-----10-9-7---------10---9-|
|--------------10-10-10-10-----8-8--------7-7-7-7----7---|
|--------------------------------------------------------|

This is the chorus...
|--------------------------------------------------|
|---------------------7---9-7-7-7-7-10-10-10-10-10-|
|-8-8-8-8-10-10-10-10---7--------------------------|
|--------------------------------------------------|

Use this to jump back into the verse
|---------------------------|
|---------------------7---9-|
|-8-8-8-8-10-10-10-10---7---|
|---------------------------|
[ Tab from: http://www.guitartabs.cc/tabs/c/cure/lovesong_btab_ver_3.html ]
Here's a fun extra part that I learned from the Extended Mix
|---------------------------------------------------|
|-----------------------------10-9-7---------9---10-|
|-0-0-0-0-0-0-0-0-0-0-0-0-8-8--------7-7-7-7---7----|
|---------------------------------------------------|

Lovesong
--------

Whenever I'm alone with you               Verse Part 1
You make me feel like I am home again     Verse Part 1
Whenever I'm alone with you               Verse Part 1
You make me feel like I am whole again... Verse Part 2

Whenever I'm alone with you
You make me feel like I am young again
Whenever I'm alone with you
You make me feel like I am fun again...

How ever far away                         Chorus Part 1
I will always love you                    
How ever long I stay                      Chorus Part 1
I will always love you                    
What ever words I say                     Chorus Part 2
I will always love you                    
I will always love you...

Fly me to the moon...

Whenever I'm alone with you
You make me feel like I am free again
Whenever I'm alone with you
You make me feel like I am clean again...

How ever far away
I will always love you
How ever long I stay
I will always love you
What ever words I say
I will always love you
I will always love you...
Comments