Cure - Lovecats Chords & Tabs

 

Lovecats Chords & Tabs

Cure Chords & Tabs

Version: 4 Type: Bass Tab 0 ratings
1 star 2 stars 3 stars 4 stars 5 stars
comments

Lovecats Bass Tab

   
The Cure - The Lovecats

Intro
G|-----|----------|----------|----------|----------|
D|-----|----------|----------|----------|----------|
A|-----|----------|----------|----------|----------|
E|-0-3-|-5----0-3-|-1----0-3-|-5----0-3-|-1----0-3-|

Part A
G|------------------|----------------|
D|------------------|----------------|
A|----7--5--3-------|----5--3--2-----|
E|-5------------0-3-|-1----------0-3-| 6x

Chorus
G|---------------|----------------|
D|-----------5---|-----------10\--|
A|-3--5--7-----3-|-5--7--8--------|
E|---------------|----------------| 2x

Repeat Part A 6x

Repeat Chorus 2x

Part B
G|---------------|----------------|
D|-----------9\--|-----------10\--|
A|-0------6~-----|--------7~------|
E|---------------|-1--------------| 4x

Repeat Part A 4x
[ Tab from: http://www.guitartabs.cc/tabs/c/cure/lovecats_btab_ver_4.html ]
Part C
G|-------------|--------------|-------------|-------------|
D|------5------|------7-------|------5------|-------10----|
A|----7---7----|----8----8----|----7---7----|----8------8-|
E|-0---------3-|-1----------1-|-0---------3-|-1-----------|

Repeat Part B 2x

Repeat Part A 2x

Part D
G|-------------------|-------------------|
D|-------------------|-------------------|
A|--------5-7-8-7----|--------2-3-2------|
E|-5-7-8----------8--|-1-3-5--------5-3--| 2x

Repeat Part A 3x, then
G|------------------|----------------|
D|------------------|----------------|
A|----7--8--7-------|----5--3--2-----|
E|-5------------0-3-|-1----------0-3-|

G|------------------|
D|------------------|
A|------------------|
E|-0----------------|

G|------------------|
D|------------------|
A|------------------|
E|-5/------------17-| (Slide up from 5 to 17)
Comments