Cure - Lovecats Chords & Tabs

 

Lovecats Chords & Tabs

Cure Chords & Tabs

Version: 3 Type: Bass Tab 0 ratings
1 star 2 stars 3 stars 4 stars 5 stars
comments

Lovecats Bass Tab

Standard Tuning

Intro
G----------|--------|--------|--------|
D----------|--------|--------|--------|  
A----------|--------|--------|--------|  
E-3-5----3-|-1----3-|5----3--|1-----3-|   

G----------------|---------------|
D----------------|---------------|
A----7--5--3-----|----5--3--2----|   6x
E-5------------3-|-1----------3--|

G----------------|---------------------|
D-----------5----|-----------10\-------|  2x
A-3--5--7-----3--|-5--7--8-------------|
E----------------|---------------------|

G----------------|---------------|
D----------------|---------------|
A----7--5--3-----|----5--3--2----|   6x
E-5------------3-|-1----------3--|

G----------------|---------------------|
D-----------5----|-----------10\-------|  2x
A-3--5--7-----3--|-5--7--8-------------|
E----------------|---------------------|

G--------------|-------------------|
D----------9\--|----------10\------|  4x
A-0---6~-------|-----7~------------|
E--------------|-1-----------------|
[ Tab from: http://www.guitartabs.cc/tabs/c/cure/lovecats_btab_ver_3.html ]
G----------------|---------------|
D----------------|---------------|
A----7--5--3-----|----5--3--2----|   4x
E-5------------3-|-1----------3--|

G-------------|--------------|-------------|-------------|
D------5------|------7-------|------5------|-------10----|
A----7---7----|----8----8----|----7---7----|----8------8-|
E-0---------3-|-1----------1-|-0---------3-|-1-----------|

G--------------|----------------|
D----------9\--|----------10\----|  2x
A-0---6~-------|-----7~----------|
E--------------|-1---------------|

G----------------|---------------|
D----------------|---------------|
A----7--5--3-----|----5--3--2----|   2x
E-5------------3-|-1----------3--|

G----------------|----------------|---------------|----------------|
D----------------|----------------|---------------|----------------|
A-------5-7-8-7--|-------2-3-2----|--------5-7-8-7|-------2-3-2----|
E5-7-8----------8|1-3-5--------5-3|-5-7-8---------|1-3-5--------5-3|

G----------------|---------------|
D----------------|---------------|
A----7--5--3-----|----5--3--2----|   4x
E-5------------3-|-1----------3--|

G--------|---------------|
D--------|---------------|
AŚ-------|---------------|
EŚ10/----|--0------------|
Comments