Cure - Love Song Chords & Tabs

 

Love Song Chords & Tabs

Cure Chords & Tabs

Version: 1 Type: Bass Tab

Love Song Bass Tab

   
LOVE SONG
The Cure

Taken from the Elektra album Disintegration (1989)

Transcribed by: Damian Pamminger (TwitcheD_85@hotmail.com)

Standard tuning: E A D G

Fig. 1a (3x)
|----------------------------------------------------------------------|
| -------7-9-10---------------7-7-9---------10-9-7----------9---10-----|
|-0--0----------10--10-10-10--------8--8-8--------7--7-7-7---7---------|
|----------------------------------------------------------------------|
[ Tab from: http://www.guitartabs.cc/tabs/c/cure/love_song_btab.html ]
Fig. 1b (1x)
| ---------------------------------------------------------------------|
|-------7-9-10---------------7-7-9---------10-9-7------9---10---9------|
|-0--0---------10--10-10-10---------8--8-8--------7--7---7----7--------|
| ---------------------------------------------------------------------|

Fig. 1a (3x)
Fig, 1b (1x)
Fig. 1a (1x)
Fig. 1b (1x)
Fig. 1a (3x)
Fig. 1b (1x)

Fig. 2
| ---------------------------------------------------------------9-9-9-9---|
| --------7-------------------7-7-9---------10-9-7-10--10-10-10------------|
| -8--8-8---8-8-10--10-10-10--------0--0-0---------------------------------|
|--------------------------------------------------------------------------|

|----------| --------------------------------------|
|--REPEAT--|--------7-------------------7-7-9------|
|-two-more-|-8--8-8---8-8-10--10-10-10-------------|
| --times---| -------------------------------------|

Fig. 1a (3x)
Fig. 1b (1x)
Fig. 1a (3x)
Fig. 1b (1x)
Fig. 2 (1x)

End:
|--------------|
|--------------|
|-0------------|
|--------------|