Cure - Lets Go To Bed Chords & Tabs

 

Lets Go To Bed Chords & Tabs

Cure Chords & Tabs

Version: 1 Type: Bass Tab 0 ratings
1 star 2 stars 3 stars 4 stars 5 stars
comments

Lets Go To Bed Bass Tab

   
Standard Tuning

G:-----5---------8---------10----3p-0----|
D:------------------------------------1--|
A:-3-3---3-3-6-6---6-6-8-8-----1---------|
E:---------------------------------------|

Riff 2
G:-----10---------10---------12-------------12----|
D:------------------------------------------------|
A:-8-8----8-8-8-8----8-10-10----10-10-10-10----10-|
E:------------------------------------------------|

G:-----8---------8-------10---------10---|
D:---------------------------------------|
A:-6-6---6-6-6-6---6-8-8----8-8-8-8----8-|
E:---------------------------------------|

G:-------12-------------12----|
D:----------------------------|
A:-10-10----10-10-10-10----10-|
E:----------------------------|

G:-------13-------------13----|
D:----------------------------|
A:-11-11----11-11-11-11----11-|
E:----------------------------|

G:-------15-------------15----------15-------------15----|
D:-------------------------------------------------------|
A:-13-13----13-13-13-13----13-13-13----13-13-13-13----13-|
E:-------------------------------------------------------|

Riff 3
Part A

G:-------------------------------------|
D:-----10---------8---------6----------|
A:-------------------------------8-6-6-|
E:-8-8----8-8-6-6---6-6-4-4----6-------|


Riff 3
Part B
[ Tab from: http://www.guitartabs.cc/tabs/c/cure/lets_go_to_bed_btab.html ]
G:-------------------------3---------4-----|
D:-----5---------6-------------------------|
A:---------------------1-1---1-1-2-2---2-2-|
E:-3-3---3-3-4-4---4-4---------------------|

Riff 4
G:-----5---------8---------10----3p0---|
D:-----------------------------------1-|
A:-3-3---3-3-6-6---6-6-8-8-----1-------|
E:-------------------------------------|

G:---5----3p0-----5----3p0---|
D:------------1------------1-|
A:-3----1-------3----1-------|
E:---------------------------|

Riff 5
(Last chorus)

G:-------------------------------------|
D:-----6---------6-------8---------8---|
A:-------------------------------------|
E:-4-4---4-4-4-4---4-6-6---6-6-6-6---6-|

G:-------------------------------------|
D:-----6---------6-------5---------5---|
A:-------------------------------------|
E:-4-4---4-4-4-4---4-3-3---3-3-3-3---3-|

G:-----10---------10----------|
D:----------------------------|
A:-8-8----8-8-8-8----8--------|
E:----------------------------|

G:-------12-------------12----|
D:----------------------------|
A:-10-10----10-10-10-10----10-|
E:----------------------------|

G:-------13-------------13----|
D:----------------------------|
A:-11-11----11-11-11-11----11-|
E:----------------------------|

G:-------15-------------15----|
D:----------------------------|
A:-13-13----13-13-13-13----13-|
E:----------------------------|
Comments