Cure - Killing An Arab Chords & Tabs

 

Killing An Arab Chords & Tabs

Cure Chords & Tabs

Version: 3 Type: Bass Tab 0 ratings
1 star 2 stars 3 stars 4 stars 5 stars
comments

Killing An Arab Bass Tab

 ---------------------------
| KILLING AN ARAB           |
|                           |
| Boys Don't Cry (1980)     |
|                           |
| www.thetwilightgarden.com |
 ---------------------------

BASS

smalot13@mail.purduenc.edu
http://www.geocities.com/SouthBeach/6282

This version is from "The Peel Session 12/4/78." I've always liked
Michael Dempsey's bass lines better, so I tabbed this his way. There 
is an added fill in this version, so just exclude it to get the basic 
version of Killing an Arab.


Intro
G ---------------|---------------|---------------|--------------|
D --------12-----|--------11-----|--------10-----|--------9-----|
A --14-14----14--|--13-13----13--|--12-12----12--|--11-11---11--|
E ---------------|---------------|---------------|--------------|

G --------------|-----------|------------|
D --------8-----|------7----|------6-----|
A --10-10---10--|--9-9---9--|--8-8----8--|
E --------------|-----------|------------|
[ Tab from: http://www.guitartabs.cc/tabs/c/cure/killing_an_arab_btab_ver_3.html ]
Main Rhythm
/ = slide up  \ = slide down
G --------------------|----------|
D --------------------|----------|  x7
A --7-7--7-7---7-7-7--|--8/11\8--|
E -----------7--------|----------|

G --------------------|--------|
D --------------------|--------|
A --7-7--7-7---7-7-7--|--8--7--|
E -----------7--------|--------|

I'm alive...
G --------------------|----------|  
D --7-7--7-7---7-7-7--|--8/11\8--|
A -----------7--------|----------|
E --------------------|----------|

I'm dead...
G --------------------|----7------|  
D --7-7--7-7---7-7-7--|--8---8----|
A -----------7--------|--------8--|
E --------------------|-----------|

Repeat as necessary...

Outro
G ---------------|---------------|---------------|--------------|
D --------12-----|--------11-----|--------10-----|--------9-----|
A --14-14----14--|--13-13----13--|--12-12----12--|--11-11---11--|
E ---------------|---------------|---------------|--------------|

G --------------|-----------|------------|-----|
D --------8-----|------7----|------6-----|-----|
A --10-10---10--|--9-9---9--|--8-8----8--|--7--|
E --------------|-----------|------------|-----|
Comments