Cure - Just Say Yes Acoustic Chords & Tabs

 

Just Say Yes Acoustic Chords & Tabs

Cure Chords & Tabs

Version: 1 Type: Tab 0 ratings
1 star 2 stars 3 stars 4 stars 5 stars
comments

Just Say Yes Acoustic Tab

   
-----------------------------------------------------------------------------
		     JUST SAY YES ACOUSTIC - The Cure
-----------------------------------------------------------------------------

Tabbed by: Ignacio "Coco" Vespoli
Email: cocofuhgawz@hotmail.com
Guitar: Acoustic (Nylon strings)
Tuning: Normal

_____________________________________________________________________________


INTRO
Guitar 1
e|-----|-----|-----|-----|-----|-----|------|------|------|
B|-----|-----|-----|-----|-----|-----|------|------|------|
G|--5--|--7--|--7--|--5--|--0--|--5--|--10--|--12--|--14--|Those are
D|--5--|--7--|--7--|--5--|--0--|--5--|--10--|--12--|--14--|the chords,
A|--3--|--5--|--7--|--3--|--0--|--3--|--8---|--10--|--12--|figure out
E|-----|-----|--5--|-----|-----|-----|------|------|------|the strumming

then... (repeat a lot)
e|-----|-----|
B|-----|-----|
G|--7--|--7--|Those are
D|--7--|--7--|the chords,
A|--5--|--7--|figure out
E|-----|--5--|the strumming

Guitar 2
e|----------------------------------------------------|
B|----------------------------------------------------|
G|--6-7-9/12-12--6-7-9/12-12---12-11-7-4--12-11-7-4---| 2 times
D|----------------------------------------------------|
A|----------------------------------------------------|
E|----------------------------------------------------|

VERSE
Guitar 1
(repeat a lot)
e|-----|-----|
B|-----|-----|
G|--7--|--7--|Those are
D|--7--|--7--|the chords,
A|--5--|--7--|figure out
E|-----|--5--|the strumming


CHORUS
Guitar 1
(repeat a lot)
e|-----|-----|
B|-----|-----|
G|-----|-----|Those are
D|--4--|--5--|the chords,
A|--4--|--5--|figure out
E|--2--|--3--|the strumming


SOLO
Guitar 1
e|-----|-----|-----|-----|-----|-----|------|------|------|
B|-----|-----|-----|-----|-----|-----|------|------|------|
G|--5--|--7--|--7--|--5--|--0--|--5--|--10--|--12--|--14--|Those are
D|--5--|--7--|--7--|--5--|--0--|--5--|--10--|--12--|--14--|the chords,
A|--3--|--5--|--7--|--3--|--0--|--3--|--8---|--10--|--12--|figure out
E|-----|-----|--5--|-----|-----|-----|------|------|------|the strumming


Guitar 2 plays the solo that goes:
[ Tab from: http://www.guitartabs.cc/tabs/c/cure/just_say_yes_acoustic_tab.html ]
                                                                b.u.  b.d.
e|--------------------------------------------------------------------------|
B|------15----15----15-14----------15----15----15--17-14----17--19(20)__19--|
G|-8/14----14----14-------14--8/14----14----14-----------14-----------------|
D|--------------------------------------------------------------------------|
A|--------------------------------------------------------------------------|
E|--------------------------------------------------------------------------|

  b.u.  b.d.    b.u.  b.d.    b.u.  b.d.
-----------------------------------------------|
--17(18)__17----15(16)___15---14(15)__14-------|
-------------------------------------------14--|
-----------------------------------------------|
-----------------------------------------------|
-----------------------------------------------|


Guitar 1
e|-----|-----|-----|-----|-----|-----|-----|
B|-----|-----|-----|-----|-----|-----|-----|
G|--5--|--7--|--7--|--5--|--0--|--5--|--7--|Those are
D|--5--|--7--|--7--|--5--|--0--|--5--|--7--|the chords,
A|--3--|--5--|--7--|--3--|--0--|--3--|--5--|figure out
E|-----|-----|--5--|-----|-----|-----|-----|the strumming


VERSE 2
Guitar 1
(repeat a lot)
e|-----|-----|
B|-----|-----|
G|--7--|--7--|Those are
D|--7--|--7--|the chords,
A|--5--|--7--|figure out
E|-----|--5--|the strumming


CHORUS
Guitar 1
(repeat a lot)
e|-----|-----|
B|-----|-----|
G|-----|-----|Those are
D|--4--|--5--|the chords,
A|--4--|--5--|figure out
E|--2--|--3--|the strumming


VERSE 3
Guitar 1
e|-----|-----|-----|-----|-----|-----|------|------|---|------|
B|-----|-----|-----|-----|-----|-----|------|------|---|------|
G|--5--|--7--|--7--|--5--|--0--|--5--|--10--|--12--|-x2|--14--|Those are
D|--5--|--7--|--7--|--5--|--0--|--5--|--10--|--12--|tim|--14--|the chords,
A|--3--|--5--|--7--|--3--|--0--|--3--|--8---|--10--|-es|--12--|figure out
E|-----|-----|--5--|-----|-----|-----|------|------|---|------|the strumming


e|-----|-----|-----|-----|-----|-----|------|------|---|------|
B|-----|-----|-----|-----|-----|-----|------|------|---|------|
G|--5--|--7--|--7--|--5--|--0--|--5--|--10--|--12--|-x2|--14--|Those are
D|--5--|--7--|--7--|--5--|--0--|--5--|--10--|--12--|tim|--14--|the chords,
A|--3--|--5--|--7--|--3--|--0--|--3--|--8---|--10--|-es|--12--|figure out
E|-----|-----|--5--|-----|-----|-----|------|------|---|------|the strumming


 b.d.   bending down
 b.u.   bending up
 /      slide up
 \      slide down
 h      hammer-on
 p      pull-off
 ~      vibrato
 +      harmonic
 x      Mute note

===============================================================================
Comments? okay, send me and e-mail!!!
Comments