Cure - Just Like Heaven Chords & Tabs

 

Just Like Heaven Chords & Tabs

Cure Chords & Tabs

Version: 6 Type: Tab 0 ratings
1 star 2 stars 3 stars 4 stars 5 stars
comments

Just Like Heaven Tab

   
--------------------------------------------------------------------------
			     JUST LIKE HEAVEN - The Cure
--------------------------------------------------------------------------

Tuning: Standard
Tabbed By: Girlsplayitbetr

Note: I noticed there are already several versions of this song out there. 
The only reason why I submitted my version was because I included the 
parts that the synthesizer and keyboard play and I arranged it for the guitar.
So if you're looking to play an extra lead or two in this song, 
then you may find this tab helpful. 

Intro: (After the 2 measures the bass and drums play by themselves, guitar 1
comes in with this)
e|------------------------------------------------------------------------|
B|------------------------------------------------------------------------|
G|------------------------------------------------------------------------|
D|------------------------------------------------------------------------|
A|-4--4--4-4------------5--5--5-5--9--9--9-9------------------------------|
E|------------4-4--4-4----------------------------------------------------|

Then Guitar 2 comes in, strumming these chords:
e|-0--0--0-0--0-0--0-0-------------2--2--2-2------------------------------|
B|-2--2--2-2--0-0--0-0--3--3--3-3--3--3--3-3------------------------------|
G|-2--2--2-2--1-1--1-1--4--4--4-4--2--2--2-2------------------------------|
D|-2--2--2-2--2-2--2-2--4--4--4-4--0--0--0-0------------------------------|
A|-0--0--0-0--2-2--2-2--2--2--2-2-----------------------------------------|
E|------------0-0--0-0--0--0--0-0-----------------------------------------|
     A          E         Bm           D 


The the synthesizer comes in:
  (Synth. arranged for guitar)
e|-5--4---------------|--------------------5--4---------------------------|
B|------5-3--2-3-5----|-2-3-5-------2-3-5-------5-3--2-3-5-------2-3-5----|
G|-----------------2--|-------2----------------------------2-----------2--|
D|--------------------|---------------------------------------------------|
A|--------------------|---------------------------------------------------|
E|--------------------|---------------------------------------------------|

Notice I have a bar ^^^^ running through the "staff" above. Guitar 1 starts
playing the passage or lead tabbed below once the synthesizer reaches the bar.
The synthesizer does continue to play beyond the bar. The bar is just there
to signify when the lead starts. Most of this lead is based on the A major 
scale, so just think of it as running half-way through the A major scale, backwards.

 Passage (Guitar 1):
e|-9-9-9-7-7-5--4-4-4-----------------------------------------------------|
B|--------------------7-7-5-----------------------------------------------|
G|--------------------------7-7--6-7-6-------4-4-----------(REPEAT)-------|
D|-------------------------------------7-7-7-----7------------------------|
A|------------------------------------------------------------------------|
E|------------------------------------------------------------------------|

 After repeating the first part, the lead goes on to do this:
e|-----------------------------------4-4-4-5-5-5-7-7-9-9-9-10-10-10-------|
B|-------------------------5-5-5-7-7--------------------------------------|
G|-------4-4-4-6-6-7-7-7--------------------------------------------------|
D|-7-7-7------------------------------------------------------------------|
A|------------------------------------------------------------------------|
E|------------------------------------------------------------------------|

               
e|-12-12-12-10-10-10-10-9-9-9-7-7-5--4-4-4--------------------------------|
B|-----------------------------------------7-7-5--------------------------|
G|-----------------------------------------------7-7--6-7-6-------4-4-----|
D|----------------------------------------------------------7-7-7-----7---|
A|------------------------------------------------------------------------|
E|------------------------------------------------------------------------|

For the verses, use the same chords played in the intro. (A E Bm D)

[ Tab from: http://www.guitartabs.cc/tabs/c/cure/just_like_heaven_tab_ver_6.html ]
Chorus 1:
Guitars 1 & 2:
e|-2--2-2-2---3--3-3-3---2--2-2-2---3--3-3-3---2--2-2-2---3--3-3-3--------|
B|-2--2-2-2---3--3-3-3---2--2-2-2---3--3-3-3---2--2-2-2---3--3-3-3--------|
G|-3--3-3-3---4--4-4-4---3--3-3-3---4--4-4-4---3--3-3-3---4--4-4-4--------|
D|-4--4-4-4---5--5-5-5---4--4-4-4---5--5-5-5---4--4-4-4---5--5-5-5--------|
A|-4--4-4-4---5--5-5-5---4--4-4-4---5--5-5-5---4--4-4-4---5--5-5-5--------|
E|-2--2-2-2---3--3-3-3---2--2-2-2---3--3-3-3---2--2-2-2---3--3-3-3--------|
      F#         G          F#         G          F#         G

e|-2-2-2-2-2-2-2-2-2-2-2-2-2-2-2-2----------------------------------------|
B|-3-3-3-3-3-3-3-3-3-3-3-3-3-3-3-3----------------------------------------|
G|-2-2-2-2-2-2-2-2-2-2-2-2-2-2-2-2----------------------------------------|
D|-0-0-0-0-0-0-0-0-0-0-0-0-0-0-0-0----------------------------------------|
A|------------------------------------------------------------------------|
E|------------------------------------------------------------------------|
                 D

*Note* Barred chords can be substituted for open chords. I just thought 
bar chords can give the chorus a fuller sound. Do whatever floats your boat.



  Chorus 1: (Synth. arranged for guitar)
e|-4-5-4-5-7-------------4-5-7--------------------------------------------|
B|-----------5--2-3-5----------5-3----------------------------------------|
G|--------------------2---------------------------------------------------|
D|------------------------------------------------------------------------|
A|------------------------------------------------------------------------|
E|------------------------------------------------------------------------|

After the first chorus, the keyboard has it's own little solo. Here it is
arranged for guitar: (This also appears in other parts of the song) 
e|------------------------------------------------------------------------|
B|--------------------------------------------------------------5---------|
G|-7-7-7-7-6-----4-4---4--6-------7-7-7-7-6-----4-4---4-6-7-6-7-----------|
D|-----------7-7-----7------4---------------7-7-----7-------------7-------|
A|------------------------------------------------------------------------|
E|------------------------------------------------------------------------|

e|-5-5-5-5-7-9--5-7--5-7--5-7~--------------------------------------------|
B|------------------------------------------------------------------------|
G|--------------------------------7-6-7-6----------7-6-7-6----------------|
D|----------------------------------------7-7--------------7-7------------|
A|------------------------------------------------------------------------|
E|------------------------------------------------------------------------|

Chorus 2:
Guitars 1 & 2:
e|-2--2-2-2---3--3-3-3---2--2-2-2---3--3-3-3---2--2-2-2---3--3-3-3--------|
B|-2--2-2-2---3--3-3-3---2--2-2-2---3--3-3-3---2--2-2-2---3--3-3-3--------|
G|-3--3-3-3---4--4-4-4---3--3-3-3---4--4-4-4---3--3-3-3---4--4-4-4--------|
D|-4--4-4-4---5--5-5-5---4--4-4-4---5--5-5-5---4--4-4-4---5--5-5-5--------|
A|-4--4-4-4---5--5-5-5---4--4-4-4---5--5-5-5---4--4-4-4---5--5-5-5--------|
E|-2--2-2-2---3--3-3-3---2--2-2-2---3--3-3-3---2--2-2-2---3--3-3-3--------|
      F#         G          F#         G          F#         G

End On:
e|-2------------|
B|-3------------|
G|-2------------|
D|-0------------|
A|--------------|
E|--------------|


  Chorus 2/end: (Synth. arranged for guitar)
e|---------------4-5-7--------------4-5-7-10------------------------------|
B|----2-3-5------------5---2-3-5------------------------------------------|
G|----------2--------------------2----------------------------------------|
D|------------------------------------------------------------------------|
A|------------------------------------------------------------------------|
E|------------------------------------------------------------------------|

_________________________________
Song order:
Intro
Passage/lead
Verse
Passage/lead
Verse
Chorus 1
1/2 passage/lead
Verse
Chorus 2
_________________________________

I tried to be as thorough as possible. I left a few minor details out. 
But this song is pretty simple, so I'm sure you can figure those minor
details out.
I probably made a mistake, so corrections 
or suggestions would be greatly appreciated. Thanks.

| /  slide up
| \  slide down
| h  hammer-on
| p  pull-off
| ~  vibrato
| +  harmonic
| x  Mute note
==========================================================================
Comments