Cure - Just Like Heaven Chords & Tabs

 

Just Like Heaven Chords & Tabs

Cure Chords & Tabs

Version: 5 Type: Tab 0 ratings
1 star 2 stars 3 stars 4 stars 5 stars
comments

Just Like Heaven Tab

   
The Cure has two Guitar players
So I divide this tab into two guitars
Cause If you listen you hear two

The song starts with drum and bass
Then the first guitar jacks in
With the same rythm of the bass
Note! It sounds best if your first guitar has a reverb on or a chorus!
I dunno if thas the same stuff, but I don't care!

First Guitar
E|-------------------------------------------|
B|-------------------------------------------|
G|-------------------------------------------|
D|--------------------------------4-4-4-4-4--|
A|--4-4-4-4-4-----------5-5-5-5-5------------|
E|------------4-4-4-4-4----------------------|

After that the second guitar comes in
and play the chords
note: This is where Robert Smith plays the acoustic guitar

Second Guitar
E|--0-0-0-0-0--0-0-0-0-0--2-2-2-2-2--2-2-2-2-2---|
B|--2-2-2-2-2--0-0-0-0-0--3-3-3-3-3--3-3-3-3-3---|
G|--2-2-2-2-2--1-1-1-1-1--4-4-4-4-4--2-2-2-2-2---|
D|--2-2-2-2-2--2-2-2-2-2--4-4-4-4-4--0-0-0-0-0---|
A|--0-0-0-0-0--2-2-2-2-2--2-2-2-2-2--------------|
E|-------------0-0-0-0-0-------------------------|
Chords: A          E          B          D


the Second Guitar plays this for pretty Long

The first Guitar then goes into a sort of solo
Wicth Goes like this

The Tune (first part)
E|--9-9-9------------------------------------------------------|
B|--------12-12-12-10-10-9-9-9---------------------------------|
G|-----------------------------11-11-11-9-7-7-6-7-6-4-4-2-2-4--|
D|-------------------------------------------------------------|
A|-------------------------------------------------------------|
E|-------------------------------------------------------------|

He does that twice and then...
[ Tab from: http://www.guitartabs.cc/tabs/c/cure/just_like_heaven_tab_ver_5.html ]
The Tune (second part)
E|----------------------------------------------9-9-10-10-12-12-12-10-10-10-10-10--|
B|--------------------------9-9-9-10-10-12-12-12-----------------------------------|
G|-6-6-6-7-7-7-9-9-11-11-11--------------------------------------------------------|
D|---------------------------------------------------------------------------------|
A|---------------------------------------------------------------------------------|
E|---------------------------------------------------------------------------------|

And then he does the first part of the tune once more

verse one starts and guitar two just keeps on playing them chords
Guitar two just keeps playing it's rythm

After verse two the Chorus starts
Wich are just some chords

E|--2-2-2-2-2--3-3-3-3-3--|
B|--2-2-2-2-2--0-0-0-0-0--|
G|--2-2-2-2-2--0-0-0-0-0--|
D|--4-4-4-4-4--0-0-0-0-0--|
A|--4-4-4-4-4--2-2-2-2-2--|
E|--2-2-2-2-2--3-3-3-3-3--|
       Fm          G
  "You........ Lost and Lonely"
That twice and then...

E|--2-2-2-2-2-2-2-2-2-2-2-2-2-2-2-2-2-2-2-2-2-2-2-2-2-2-2-2-2-2-2-2-2-2-2-2--|
B|--3-3-3-3-3-3-3-3-3-3-3-3-3-3-3-3-3-3-3-3-3-3-3-3-3-3-3-3-3-3-3-3-3-3-3-3--|
G|--2-2-2-2-2-2-2-2-2-2-2-2-2-2-2-2-2-2-2-2-2-2-2-2-2-2-2-2-2-2-2-2-2-2-2-2--|
D|--0-0-0-0-0-0-0-0-0-0-0-0-0-0-0-0-0-0-0-0-0-0-0-0-0-0-0-0-0-0-0-0-0-0-0-0--|
A|---------------------------------------------------------------------------|
E|---------------------------------------------------------------------------|
                                      D
"Dancing in the deepest ocean. Existing in the water. Your just like a dream"

Then the piano makes a solo wich you can also play with the guitar

E|--12-12-12-12-9-------------------9----|
B|----------------10-12-12-12-12-10------|
G|------------------------------------11-|
D|---------------------------------------|
A|---------------------------------------|
E|---------------------------------------|

E|--12-12-12-12-9----------------10-9-10-12-----|
B|----------------10-12-12-10-12------------10--|
G|----------------------------------------------|
D|----------------------------------------------|
A|----------------------------------------------|
E|----------------------------------------------|

E|-----------------9----------------9-----|
B|--10-10-10-10-12---10-12-10-12-10-------|
G|------------------------------------11--|
D|----------------------------------------|
A|----------------------------------------|
E|----------------------------------------|
If there are any corrections that anyone has please contact me at ledzeppelin4425@yahoo.com
Thank You and hope you enjoy.
Comments