Cure - Just Like Heaven Chords & Tabs

 

Just Like Heaven Chords & Tabs

Cure Chords & Tabs

Version: 3 Type: Bass Tab 0 ratings
1 star 2 stars 3 stars 4 stars 5 stars
comments

Just Like Heaven Bass Tab

   
Standard tuning(e,a,d,g)


(0.02)
G|-----------------------------------------------------|
D|-----------------------------------------------------|
A|-0-00-0-2-0--------------2-22-2-0-2--5-55-5-7-5------|x4
E|-------------0-00-0-2-0------------------------------|


(0.33)
G|-----------------------------------------------------|
D|-----------------------------------------------------|
A|-0-0-0-0-----------2-2-2-2--5-5-5-5------------------|x2
E|---------0-0-0-0-------------------------------------|


(0.48)
G|-----------------------------------------------------|
D|-----------------------------------------------------|
A|-0-00-0-2-0--------------2-22-2-0-2--5-55-5-7-5------|x4
E|-------------0-00-0-2-0------------------------------|

[ Tab from: http://www.guitartabs.cc/tabs/c/cure/just_like_heaven_btab_ver_3.html ]
(1.18)
G|---------------------------------------------------------|
D|---------------------------------------------------------|
A|--------------------------555555555555555555555555555555-|(i'm 99.9% sure that's how 
is even though it's alot of notes)
E|-2-2-2020--3-3-3030-(x3)---------------------------------|


(1.38)
G|-----------------------------------------------------|
D|-----------------------------------------------------|
A|-0-00-0-2-0--------------2-22-2-0-2--5-55-5-7-5------|x4
E|-------------0-00-0-2-0------------------------------|


(2.09)
G|-----------------------------------------------------|
D|-----------------------------------------------------|
A|-0------------------2----------5---------------------|(let notes ring)
E|-----------0-----------------------------------------|x4(2x before guitar solo and 2x 
solo)


(2.39)
G|-----------------------------------------------------|
D|-----------------------------------------------------|
A|--------------------------5--------------------------|
E|-2-2-2020--3-3-3030-(x3)-----------------------------|

Well here it is.  This is how i play it with my band, and I'm pretty sure it is all correct.
Please rate, and correct, this is my first tab
Comments