Cure - Just Like Heaven Acoustic Chords & Tabs

 

Just Like Heaven Acoustic Chords & Tabs

Cure Chords & Tabs

Version: 1 Type: Tab 0 ratings
1 star 2 stars 3 stars 4 stars 5 stars
comments

Just Like Heaven Acoustic Tab

   
-----------------------------------------------------------------------------
JUST LIKE HEAVEN ACOUSTIC - The Cure
-----------------------------------------------------------------------------

Tabbed by: Ignacio "Coco" Vespoli
Email: cocofuhgawz@hotmail.com

Tuning: Normal


Guitar intro and verse
e|-----|-----|--2--|--2--|
B|--2--|--0--|--3--|--3--|
G|--2--|--1--|--4--|--2--| these are the chords, play it a lot
D|--2--|--2--|--4--|--0--|
A|--0--|--2--|--2--|-----|
E|-----|-----|-----|-----|


1st solo (first part two times)

e|--9-9--7-7--5-5-----------------------------------------|-----------------|
B|-----------------9-9-9--7-7--5-3--3-3-2-3-2-------------|---------5-5-7-7-|
G|--------------------------------------------4-4-4-2-2-4-|-6-6-7-7---------|
D|--------------------------------------------------------|-----------------|
A|--------------------------------------------------------|-----------------|
E|--------------------------------------------------------|-----------------|

  -------------------9-9-10-10-12-12-12-10-10-10-10--|
  --9-9--10-10-12-12---------------------------------|
  ---------------------------------------------------|
  ---------------------------------------------------|
  ---------------------------------------------------|
  ---------------------------------------------------|

Chorus

e|--2--|--3--|--2--|--3--|--2--|--3--|--2--|
B|--2--|--3--|--2--|--3--|--2--|--3--|--3--|
G|--2--|--0--|--2--|--0--|--2--|--0--|--2--|
D|--4--|--0--|--4--|--0--|--4--|--0--|--0--|
A|--4--|--2--|--4--|--2--|--4--|--2--|-----|
E|--2--|--3--|--2--|--3--|--2--|--3--|-----|


2nd solo. This is the piano solo, in the acoustic version, you dont have to play the 
but, however, i tabbed it.
[ Tab from: http://www.guitartabs.cc/tabs/c/cure/just_like_heaven_acoustic_tab.html ]
e|--12-12-12-12-9----------------9-9h10p9-10-12-----|--12-12-12-12-9-----|
B|----------------10-12-12-10-12----------------10--|----------------10--|
G|--------------------------------------------------|--------------------|
D|--------------------------------------------------|--------------------|
A|--------------------------------------------------|--------------------|
E|--------------------------------------------------|--------------------|

e|--------------9-9h10p9-10-12-----|-17-17-17-17-19-21-17-19p17-19p17-19p17--|
B|--12-12-10-12----------------10--|-----------------------------------------|
G|---------------------------------|-----------------------------------------|
D|---------------------------------|-----------------------------------------|
A|---------------------------------|-----------------------------------------|
E|---------------------------------|-----------------------------------------|

e|--19-17-17-17--17-17-17--22-22-22-|--------------------------------------|
B|----------------------------------|--------------------------------------|
G|----------------------------------|-then the first part of the 1st solo--|
D|----------------------------------|--------------------------------------|
A|----------------------------------|--------------------------------------|
E|----------------------------------|--------------------------------------|


End with:

e|--2--|
B|--3--|
G|--2--|
D|--0--|
A|-----|
E|-----|

THESE ARE THE PARTS OF THE SONGS,  TRY TO FIGURE OUT BY YOUR SELF

 /  slide up
 \  slide down
 h  hammer-on
 p  pull-off
 ~  vibrato
 +  harmonic
 x  Mute note
===============================================================================
Comments?, you know what to do!!!
Comments