Cure - Funeral Party Chords & Tabs

 

Funeral Party Chords & Tabs

Cure Chords & Tabs

Version: 1 Type: Bass Tab

Funeral Party Bass Tab

   
THE FUNERAL PARTY
The Cure

Taken from the Fiction/Elektra/Rhino album Faith (1981/2005 Reissue)

Transcribed by Damian Pamminger (TwitcheD_85@hotmail.com)

Standard tuning: E A D G

|-------| --------------------------------|------------|---------------------------|
|-------| --------------------------------|---REPEAT---|---------------------------|
|---1-/-|-6-------8--8-\--3-------1--1-/-|-seven-more-|-11--11--11--11--11--11-----|
|-------| --------------------------------| ---times----|--------------------------|

|-----------------------------------------------| --------------------------|
|-----------------------------------------------| --------------------------|
|-11--11--11--11--11--11--11--11/-13-13-13-\--| -6-------8-8-8-\--3---------|
|-----------------------------------------------| --------------------------|

|----------|------------ |-----------------------------------------------------|
|----------|---REPEAT--- | ----------------------------------------------------|
|-1-1-1-/--|-seven-more- |-11--11--11--11--11--11--11-11-11-11--11--11--11-----|
|----------|----times----|-----------------------------------------------------|
[ Tab from: http://www.guitartabs.cc/tabs/c/cure/funeral_party_btab.html ]
|------------------------|-------------------------------------| --------------|
|------------------------|-------------------------------------|---REPEAT------|
|-11--11/-13-13-13-13-\-| -6-------8-8-8-8-\-3-------1-1-1-1/-|-seven-more-----|
|------------------------|-------------------------------------|----times------|

|----------------------------------------------------------------------------|
|----------------------------------------------------------------------------|
|-11--11--11--11--11--11--11-11-11-11-11--11--11--11--11--11/-13--13-\-------|
|----------------------------------------------------------------------------|

| --------------------------------|------------|-----------------------------------|
| --------------------------------|---REPEAT---|-----------------------------------|
|-6-------8--8-\--3-------1--1-/-|-seven-more-|-11--11--11--11--11--11--11--11-----|
| --------------------------------| ---times----|----------------------------------|

| ------------------------------------|-------------------------------|----------|
| ------------------------------------|-------------------------------|-REPEAT---|
|-11--11--11--11--11--11/-13--13-\--|-6-------8--8-\-3-------1--1-/-|------------|
| ------------------------------------|-------------------------------|----------|

|------------------|
|------------------| Pause until end
|-6----------------|
|------------------|