Cure - Friday Im In Love Chords & Tabs

 

Friday Im In Love Chords & Tabs

Cure Chords & Tabs

Version: 1 Type: Tab 0 ratings
1 star 2 stars 3 stars 4 stars 5 stars
comments

Friday Im In Love Tab

Tabbed by: Breyanonymous
Email: lildrusync@aol.com 

Tuning: ...dradnats

e|-----0-2-0---0-2-2-2-2-3-2-3-2---0h2-2-2-2-2-5-5-3-2---0h2-2-2-2-2-3-2-3-2|
B|---3-------3--------------------------------------------------------------|
G|-2------------------------------------------------------------------------|
D|--------------------------------------------------------------------------|
A|--------------------------------------------------------------------------|
E|--------------------------------------------------------------------------|
[ Tab from: http://www.guitartabs.cc/tabs/c/cure/friday_im_in_love_tab.html ]
e|0-------------------------------------------------------------------------|
B|-3------------------------------------------------------------------------|
G|------2-4-2--------repeat thru the song (maybe some adlibs)---------------|
D|------------------------------the bridge doesnt have this in it-----------|
A|---------------------------------------------duh--------------------------|
E|--------------------------------------------------------------------------|

use the other guy's chord tabs for the rest of the song :D he or she did a great job
getting the chords down
Comments