Cure - Faded Smiles Aka I Dont Know Chords & Tabs

 

Faded Smiles Aka I Dont Know Chords & Tabs

Cure Chords & Tabs

Version: 1 Type: Tab 0 ratings
1 star 2 stars 3 stars 4 stars 5 stars
comments

Faded Smiles Aka I Dont Know Tab

Band: The Cure
Song: Faded Smiles AKA I Don't Know


tabbed by jam9383@yahoo.com


Intro/Verse

e---------------------------------------------------------------------|
B---------11------9-------6-6-6---------------------------------------|
G---11-11-11--9-9-9--7-7--6-6-6--------------4-4-3-3-3-4-4-3-3-3------|
D---11-11-11--9-9-9--7-7--6-6-6--9-9-9-7-7-7-5-5-4-4-4-5-5-4-4-4------|
A---9--9--9---7-7-7--5-5--4-4-4--9-9-9-7-7-7-5-5-4-4-4-5-5-4-4-4------|
E--------------------------------7-7-7-5-5-5-3-3-2-2-2-3-3-2-2-2------|

Bridge

e---------------------------------------------------------------------|
B-----4-------2----------------------4------2-------------------------|
G--4--4----2--2---------3--3--3---4--4---2--2---------3--3--3---------|
D--4--4----2--2---2--2--4--4--4---4--4---2--2---2--2--4--4--4---------|
A--2--2----0--0---2--2--4--4--4---2--2---0--0---2--2--4--4--4---------|
E-----------------0--0--2--2--2-----------------0--0--2--2--2---------|

e---------------------------------------------------------------------|
B---------------------------------------------------------------------|
G---4--4--3--3--3--4--4--3--3--3--------------------------------------|
D---5--5--4--4--4--5--5--4--4--4--------------------------------------|
A---5--5--4--4--4--5--5--4--4--4--------------------------------------|
E---3--3--2--2--2--3--3--2--2--2--------------------------------------|

Overdub Riff
[ Tab from: http://www.guitartabs.cc/tabs/c/cure/faded_smiles_aka_i_dont_know_tab.html ]
e---------------------------------------------------------------------|
B---------------------------------------------------------------------|
G---------------------------------------------------------------------|
D------------9-9-11-11----------------------9-9-11-11-----------------|
A--9-9-12-12------------7-7-9-9---9-9-12-12-----------7-7-9-9---------|
E---------------------------------------------------------------------|

e---------------------------------------------------------------------|
B---------------------------------------------------------------------|
G---------------------------------------------------------------------|
D-------------9-9-11-11-11b-11b---------------------------------------|
A--9-9-12-12----------------------------------------------------------|
E---------------------------------------------------------------------|

Outro

e---------------------------------------------------------------------|
B---------------------------------------------------------------------|
G---4--4--3--3--3--4--4--3--3--3--------------------------------------|
D---5--5--4--4--4--5--5--4--4--4--------------------------------------|
A---5--5--4--4--4--5--5--4--4--4--------------------------------------|
E---3--3--2--2--2--3--3--2--2--2--------------------------------------|

 w/sharp attack
e---------------------------------------------------------------------|
B---------------------------------------------------------------------|
G---------------------------------------------------------------------|
D---------------------------------------------------------------------|
A---------------------------------------------------------------------|
E--3------------------------------------------------------------------|

any comments/corrections contact me, please rate
Comments