Cure - Doubt Chords & Tabs

 

Doubt Chords & Tabs

Cure Chords & Tabs

Version: 1 Type: Bass Tab 0 ratings
1 star 2 stars 3 stars 4 stars 5 stars
comments

Doubt Bass Tab

Doubt

The Basic Rhythm
G ---------------------------------|
D ---------------------------------|
A -------------------3-3-3-2-2-----|
E -0-0-3-3-2-1-1-1-1---------------|

First Chorus - "Screaming Throw Myself..."
G ----------------------------------|
D ----------------------------------|
A ------------------3-3-3-5-5-5-5-5-|
E -5-5-5--3-3-3-3-3-----------------|
[ Tab from: http://www.guitartabs.cc/tabs/c/cure/doubt_btab.html ]
Second Chorus - "Kiss You Once..."
G ---------------------------------------------------------------------|
D ---------------------------------------------------------------------|
A -----------------------------------------------9-9---------------9-9-|
E -1-1-1-1-1-1-1-1-1-1-1-1-1-1-1-1-5-5-5-3-3-3-3-----5-5-5-3-3-3-3-----|

"Life...ooohhh..."
G ------------------------|
D ------------------------|
A ---2-----2-----4-----4--|
E -3---3-3---3-5---5-5--5-|

Repeat Rhythm And End On Open E
Comments