Cure - Disintegration Chords & Tabs

 

Disintegration Chords & Tabs

Cure Chords & Tabs

Version: 2 Type: Tab 0 ratings
1 star 2 stars 3 stars 4 stars 5 stars
comments

Disintegration Tab

---------------------------------------------------------------
		   Disintegration - The Cure
---------------------------------------------------------------


Transcribed by: John Nguyen
e-mail: sd_prophet@hotmail.com

Tuning: standard EADGBe

These are pretty much the repeated guitar lines 
throughout the song. The times labeled are when
they are first heard in the song.

i wonder why i couldn't find tabs for this on 
any site, so i just stopped being lazy and did
it myself. now to share the wealth.


Intro: (1:03)

e --8-7-------5-----------------------|
B --------------8-------7-------------|
G ------------------------7-----------| x3
D ------------------------------------|
A ------------------------------------|
E ------------------------------------|
[ Tab from: http://www.guitartabs.cc/tabs/c/cure/disintegration_tab_ver_2.html ]
e ------------------------------------|
B ----5---5-----5---5-----5---5-------|
G --7---7-----7---7-----7---7---------| x1
D ------------------------------------|
A ------------------------------------|
E ------------------------------------|

Verse: (1:35)

e --5---5---5-----2---2---2-----------|
B ----3---3---3-----0---0---0---------|
G ------------------------------------|
D ------------------------------------|
A ------------------------------------|
E ------------------------------------|

e --7---7---7-----7---10---12---------|
B ----5---5---5-----5-----------------|
G -----------------------9----9-------|
D ------------------------------------|
A ------------------------------------|
E ------------------------------------|

Fill: (3:31) (5:37)

e ---7---5---3------------------------|
B ------------------------------------|
G ------------------------------------|
D ------------------------------------|
A ------------------------------------|
E ------------------------------------|


===============================================================
Comments