Cure - Closedown Chords & Tabs

 

Closedown Chords & Tabs

Cure Chords & Tabs

Version: 3 Type: Tab 0 ratings
1 star 2 stars 3 stars 4 stars 5 stars
comments

Closedown Tab

The cure
Closedown
Standard tuning
This is played at the beginning, in the background 
when the 2nd solo is being played and on the outro
|-----------------------------------------------|
|-----------------------------------------------|
|-----------------11----------------------------|
|--7-7-7-9-9/11-9----12-11-12-11-7-9-9----------|
|--------------------------------------9-9-7-9--|
|-----------------------------------------------|

|-----------------------------------------------------|
|-----------------------------------------------------|
|-----------------11-------------------9-9-9-7-7-6-6--|
|--7-7-7-9-9/11-9----12-11-12-11-7-9-9----------------|
|-----------------------------------------------------|
|-----------------------------------------------------|

|---------------------------------------|
|---------------------------------------|
|--9-9-9-7-7-6-7-6-------9-9-9-7-7-6-6--|
|------------------7/9-9----------------|
|---------------------------------------|
|---------------------------------------|

|---------------------------------------|
|---------------------------------------|
|--9-9-9-7-7-6-7-6-------9-9-9-7-7-6-6--|
|------------------7/9-9----------------|
|---------------------------------------|
|---------------------------------------|
 Then Robert Smith sings...
 
The 2nd solo is
|----------------------------------------------------------|
|----------------------------------------------------------|
|----------------------------------------------------------|
|--------------19-18---------------------------------------|
|--16-16-17/19-------19---16-16-16-17-16---16-16-16-17-16--|
|----------------------------------------------------------|
[ Tab from: http://www.guitartabs.cc/tabs/c/cure/closedown_tab_ver_3.html ]
|------------------------------------------------------------------|
|------------------------------------------------------------------|
|------------------------------------------------------------------|
|--------------19-18----19-18----19-18----19/21-21-21-21-14-14-14--|
|--16-16-17/19-------19-------19-------19--------------------------|
|------------------------------------------------------------------|

|-----------------------------------------------------|
|-----------------------------------------------------|
|-----------------------------------------------------|
|--14-12-11-11--14-12-11-11--14-12-11-12-11-----------|
|-------------------------------------------12-12-12--|
|-----------------------------------------------------|

|-----------------------------------------------------|
|-----------------------------------------------------|
|-----------------------------------------------------|
|--14-12-11-11--14-12-11-11--14-12-11-12-11-----------|
|-------------------------------------------12-12-12--|
|-----------------------------------------------------|
not 100% sure bout this, but just adapt around it and work it out
|------------------------------------------------------------------------------------|
|------------------------------------------------------------------------------------|
|-----------------------------------------18-18--------------------------------------|
|--------------------16/18-18-19-19/21-21-------14-14-14-14-14-12-11-12-11-----------|
|--14/16-16-17-17/19-------------------------------------------------------12-12-----|
|------------------------------------------------------------------------------------|
then play the intro riff again until the end
take care ppl...email me for corrections or if u want any other cure tabs...hardpunx@msn.com
Comments