Cure - Catch Chords & Tabs

 

Catch Chords & Tabs

Cure Chords & Tabs

Version: 1 Type: Bass Tab 0 ratings
1 star 2 stars 3 stars 4 stars 5 stars
comments

Catch Bass Tab

Standard tuning

G:------------------------------------------------|
D:------------------------------------------------|
A:-5--5--5-7--0--0--5-7-0-5--5--5-7--0--0--5-7-5--|
E:------------------------------------------------|

G:------------------------------------------------| 
D:------------------------------------------------| 
A:-5--5--5-5-7-0--0--5-7-0-5--5--5-7--0--0--5-7-5-|
E:------------------------------------------------|

Riff 2 
G:------------------------------------------------|
D:------------------------------------------------|
A:-2--2--2-4--0--0--2-4-0-2--2--2-4--0--0--2-4-0--|
E:------------------------------------------------|
[ Tab from: http://www.guitartabs.cc/tabs/c/cure/catch_btab.html ]
G:------------------------------------------------|
D:------------------------------------------------|
A:-2--2--2-2-4-0--0--2-4-0-2--2--2-4--0--0--2-4-0-|
E:------------------------------------------------| 

Riff 3 
G:----------------------------| 
D:----------------------------| 
A:----------------------2-4-0-| 
E:-3--3-3-3-3-2-2-0--0--------| 

G:----------------------------|
D:----------------------------|
A:----------------------5-7-0-|
E:-3--3-3-3-3-2-2-0--0--------| 

Riff 4
G:------------------------------------------------|
D:------------------------------------------------| 
A:-5--5--5-7--0--0--2-4-0-2--2--2-4--0--0--5-7-0--|
E:------------------------------------------------|
Comments