Cure - Boys Dont Cry Chords & Tabs

 

Boys Dont Cry Chords & Tabs

Cure Chords & Tabs

Version: 3 Type: Tab 0 ratings
1 star 2 stars 3 stars 4 stars 5 stars
comments

Boys Dont Cry Tab

Song: Boys Don't Cry
Artist: The Cure
Album: 
Tuning: EADGBe (standard)

Gtr 1: acoustic (rythm)
Gtr 2: light distorsion (lead)

tabbed by BoF feel free to send me feedback 
and corrections at Bof_mu@caramail.com

Intro
Gtr 1
e------------------------------------------
B--4---5---7---9-------11-7-5--------------
G--6---7---9---11------11-9-7-------------- x1
D--6---7---9---11------11-9-7--------------
A--4---5---7---9-------9--7-5--------------
E------------------------------------------

Gtr 1
e------------------------------------------------
B-----------------9--7-5-------------------------
G-------------7---11-9-7------------------------- x3
D--7--9--11---7---11-9-7-------------------------
A--7--9--11---5---9--7-5-------------------------
E--5--7--9---------------------------------------
Gtr 2
e------------------------------5------------------
B---------------------5-5--7-9----7-5-------------
G-6-6--7-9--6-6--7-9------------------7---6hold--- x2
D-------------------------------------------------
A-------------------------------------------------
E-------------------------------------------------

Verse

Gtr 1, Gtr 2(clean)
e--------------------------------------------------------
B--------------------------------------------------------
G-------------------------------------------7-x-7--7-7---
D--7-x-7--7-7--9-x-9--9-9---11x-11-11-11----7-x-7--7-7---x2
A--7-x-7--7-7--9-x-9--9-9---11x-11-11-11----5-x-5--5-5---
E--5-x-5--5-5--7-x-7--7-7---9-x-9--9--9------------------
[ Tab from: http://www.guitartabs.cc/tabs/c/cure/boys_dont_cry_tab_ver_3.html ]
e--------------------------------------------------------
B--4-x-4--4-4---2-x-2--2-2-------------------------------
G--6-x-6--6-6---4-x-4--4-4-------------------------------x4
D--6-x-6--6-6---4-x-4--4-4-------------------------------
A--4-x-4--4-4---2-x-2--2-2-------------------------------
E--------------------------------------------------------


Chorus

Gtr 1
e---------------------------------------------------------------
B---------------------------------------------------------------
G-------------------------------------------7-x-7--7-7--11-9-7--
D--7-x-7--7-7--9-x-9--9-9---11x-11-11-11----7-x-7--7-7--11-9-7--x2
A--7-x-7--7-7--9-x-9--9-9---11x-11-11-11----5-x-5--5-5--9--7-5--
E--5-x-5--5-5--7-x-7--7-7---9-x-9--9--9-------------------------
Gtr 2
e-------------------------------5------------------------
B---------------------5-5--7-9------7-5------------------
G-6-6--7-9--6-6--7-9--------------------7----------------x2
D--------------------------------------------------------
A--------------------------------------------------------
E--------------------------------------------------------

Verse 2
same as verse 1

Chorus

Verse 3
same as verse 1

Bridge

Gtr 1, Gtr 2(clean)
e---------------------------------------------------12--12-9----
B--7-x-7--7-7--9---9--1111--7---9--7-7--9---11-1111-12--12-9----
G--9-x-9--9-9--11--11-1111--9---9--9-9--11--11-1111-------------
D--9-x-9--9-9--11--11-1111--9---7--9-9--11--11-1111-------------
A--7-x-7--7-7--9-x-9--9-9---7-x-7--7-7--9-x-9--9-9--------------
E---------------------------------------------------------------

e---------------------------------------------------------------
B--7-x-7--7-7--9---9--1111--7---9--7-7--9---11-1111-------------
G--9-x-9--9-9--11--11-1111--9---9--9-9--11--11-1111---7-7-7-7-7-
D--9-x-9--9-9--11--11-1111--9---7--9-9--11--11-1111---7-7-7-7-7-
A--7-x-7--7-7--9-x-9--9-9---7-x-7--7-7--9-x-9--9-9----5-5-5-5-5-
E---------------------------------------------------------------

Chorus

Ending
near same as intro, figure the variations yourself it's easy

tabbed by BoF feel free to send me feedback 
and corrections at Bof_mu@caramail.com
Enjoy
Comments