Cure - Boys Dont Cry Chords & Tabs

 

Boys Dont Cry Chords & Tabs

Cure Chords & Tabs

Version: 5 Type: Bass Tab 0 ratings
1 star 2 stars 3 stars 4 stars 5 stars
comments

Boys Dont Cry Bass Tab

   
----------------------------------PLEASE NOTE---------------------------------
This file is the author's own work and represents their interpretation of the 
song. You may only use this file for private study, scholarship, or research. 
------------------------------------------------------------------------------
Tabbed By: Jeremy Dire
Band: The Cure
Song: Boys Dont Cry
Album(s): Boys Dont Cry, Greatest Hits
Bassist: Simon Gallup
Tuning: Standard E A D G

*Updated and Revised*

Intro
G ---------------------------------------|
D ---------------------------------------|
A ---0-----2-----4-----5-----5-4-2-------|
E ---------------------------------------|


Chorus
G ---------------------------------------|
D ---7---------8---------7---------------|x3
A -6---6-657-7---7-768-8---8-879---9-8-7-|
E ---------------------------------------|

Verse 1 (note "*"=Let Ring)
G ---------------------------------------|
D ---7---------8---------7---------------|
A -6---6-657-7---7-768-8---8-879*--9-999-|x2
E ---------------------------------------|

Pre-Chorus
G ----------------------------------------|
D ---8---------7---------8---------7------|
A -7---7-777-6---6-666-7---7-777-6---6-666|
E ----------------------------------------|

G ----------------------------------------|
D ---8---------8---------8----------------|
A -7---7-777-9---9-999-7---7-777-3-3-2211-|
E ----------------------------------------|

Chorus
G ---------------------------------------|
D ---7---------8---------7---------------|x2
A -6---6-657-7---7-768-8---8-879---9-8-7-|
E ---------------------------------------|
[ Tab from: http://www.guitartabs.cc/tabs/c/cure/boys_dont_cry_btab_ver_5.html ]
Verse 2 (note "*"=Let Ring)
G ---------------------------------------|
D ---7---------8---------7---------------|
A -6---6-657-7---7-768-8---8-879*--9-999-|x2
E ---------------------------------------|

Pre-Chorus
G ----------------------------------------|
D ---8---------7---------8---------7------|
A -7---7-777-6---6-666-7---7-777-6---6-666|
E ----------------------------------------|

G ----------------------------------------|
D ---8---------8---------8----------------|
A -7---7-777-9---9-999-7---7-777-3-3-3333-|
E ----------------------------------------|

Chorus
G ---------------------------------------|
D ---7---------8---------7---------------|x2
A -6---6-657-7---7-768-8---8-879---9-8-7-|
E ---------------------------------------|

Verse 3 (note "*"=Let Ring)
G ---------------------------------------|
D ---7---------8---------7---------------|
A -6---6-657-7---7-768-8---8-879*--9-999-|x2
E ---------------------------------------|

Verse Variation ("Misjudged You Limits...)
G --------------|--------------|  |--------------|-------------|
D --------------|--------------|x2|--------------|-------------|
A --7--7-7-7-7--|--5--5-5-5-5--|  |--7--7-7-7-7--|--9--9-9-9-9-|
E --------------|--------------|  |--------------|-------------|

G --------------|-----------|
D --------------|-----------|
A --5--5-5-5-5--|--5-4-2-0--|
E --------------|-----------|

Verse 4 (note "*"=Let Ring)
G ---------------------------------------|
D ---7---------8---------7---------------|
A -6---6-657-7---7-768-8---8-879*--9-999-|x2
E ---------------------------------------|

Chorus
G ---------------------------------------|
D ---7---------8---------7---------------|x3
A -6---6-657-7---7-768-8---8-879---9-8-7-|
E ---------------------------------------|

End

G-----------|-----------|-------------|-----------|-----------|
D-----------|-----------|-------------|-----------|-----------|
A-0*--------|-2*--------|-4*----------|-5*--------|5*-4*-2*-0*|
E-----------|-----------|-------------|-----------|-----------|

Enjoy!
Comments