Cure - Bloodflowers Chords & Tabs

 

Bloodflowers Chords & Tabs

Cure Chords & Tabs

Version: 1 Type: Bass Tab 0 ratings
1 star 2 stars 3 stars 4 stars 5 stars
comments

Bloodflowers Bass Tab

 ---------------------------
| BLOODFLOWERS              |
|                           |
| Bloodflowers (2000)       |
|                           |
| www.thetwilightgarden.com |
 ---------------------------

BASS

http://www.geocities.com/cure_dib/
Joshua Cross (cure_dib@yahoo.com)

i have received more requests for a tab of this song than just about all the others put
together! i must say it is a harder one to figure out, because the bass does not stand
out very much on the studio versions. i had to listen to DreamTour bootlegs just to hear
the bassline. i'm almost positive this is a correct transcription of what Simon plays.
if you have any corrections, please send them!


MAIN RIFF

G ----------------------------------------------------------------------------------------|
D ----------------------------------------------------------------------------------------|
A -4--4-4--4-4--4-4-4-4--2--2-2--2-2--2-2-2-2--0--0-0--0-0--0-0-0-0-----------------------|
E -------------------------------------------------------------------2--2-2--2-2--2-2-2-2-|
[ Tab from: http://www.guitartabs.cc/tabs/c/cure/bloodflowers_btab.html ]
G ----------------------------------------------------------------------------------------|
D ----------------------------------------------------------------------------------------|
A -4--4-4--4-4--4-4-4-4--2--2-2--2-2--2-2-2-2--0--0-0--0-0--0-0-0-0--2--2-2--2-2--2-2-2-2-|
E ----------------------------------------------------------------------------------------|

G -----------------------------------------------------------------------------------------|
D -----------------------------------------------------------------------------------------|
A -4--4-4--4-4--4-4-4-4--2--2-2--2-2--2-2-2-2----------------------------------------------|
E ---------------------------------------------0--0-0--0-0--0-0-0-0--2--2-2--2-2--2-2-2-2--|

G --------------------------------------------|
D --------------------------------------------|
A -0--0-0--0-0--0-0-0-0--2--2-2--2-2--2-2-2-2-|
E --------------------------------------------|


LOUD PARTS

G -----------------------------------------------|
D -----------------------------------------------|
A -----------------------------------------------|  x3
E -2--2-2--2-2--2-2-2-2--/--9--9-9--9-9--9-9-9-9-|

G --------------------------------------------|
D --------------------------------------------|
A --------------------------------------------|
E -5--5-5--5-5--5-5-5-5--5--5-5--5-5--5-5-5-5-|
                         ^

note: sometime it ends where the ^ is


MIDDLE 8
"between me and you..."

G -------------------------------------|
D -------------------------------------|
A -2--2-2--2-2--2-2---4--4-4--4-4--4-4-|  x2
E -------------------------------------|

G -------------------------------------|
D -------------------------------------|
A -0--0-0--0-0--0-0---4--4-/-9--9--7-9-|  x2
E -------------------------------------|
Comments