Cure - All Cats Are Grey Chords & Tabs

 

All Cats Are Grey Chords & Tabs

Cure Chords & Tabs

Version: 3 Type: Bass Tab

All Cats Are Grey Bass Tab

   
ALL CATS ARE GREY
The Cure

Taken from the Fiction/Elektra/Rhino album Faith (1981/2005 Reissue)

Transcribed by: Damian Pamminger (TwitcheD_85@hotmail.com)

Standard tuning: E A D G

Pause

|---------------------------------------------------------------------------|
|---------------------------------------------------------------------------|
| -------------------------7--7--7--7--7--7--7--7--5--5--5--5--5--5--5--5---|
| 4--4--4--4--4--4--4--4/---------------------------------------------------|

| ------------------------|------------| -----------------------------------------|
| ------------------------|---REPEAT-- | -----------------------------------------|
| ------------------------|-three-more-| -----------------------------------------|
|-7--7--7--7--7--7--7--7-|----times---|-8--8--8--8--8--8--8--8--7--7--7--7--7-----|

| ---------|------------|----------------------------------------------------|
| ---------|---REPEAT-- |----------------------------------------------------|
| ---------|-three-more-|----------------------------------------------------|
|-7--7--7-|---times---- |-5--5--5--5--5--5--5--5--5--5--5--5--5--5--5--5-----|

|--------| PLAY THIS WHOLE THING THREE TIMES
|-REPEAT-|
|--------|
|--------|
[ Tab from: http://www.guitartabs.cc/tabs/c/cure/all_cats_are_grey_btab_ver_3.html ]
| -------------------------------------------------|--------------|
| -------------------------------------------------|--REPEAT------|
| -------------------------------------------------|-three-more---|
|-5--5--5--5--5--5--5--5--5--5--5--5--5--5--5--5-|---times--------|

|------------------------------------------------- |----------|
|------------------------------------------------- |-REPEAT---|
|------------------------------------------------- |----------|
|-3--3--3--3--3--3--3--3--3--3--3--3--3--3--3--3-|------------|

| ---------------------------------------------------------------------------------|
| ---------------------------------------------------------------------------------|
| ---------------------------------------------------------------------------------|
|-5--5--5--5--5--5--5--5--5--5--5--5--5--5--5--5--5--5--5--5--5--5--5--5--5--5-----|

| ---------------------------------------------------------------------------------|
| ---------------------------------------------------------------------------------|
| ---------------------------------------------------------------------------------|
|-5--5--5--5--5--5--3--3--3--3--3--3--3--3--3--3--3--3--3--3--3--3--3--3--3--3-----|

|-------------------------------------|----------|--------------------------------|
|-------------------------------------|--REPEAT--|--------------------------------|
|-------------------------------------|-two-more-|--------------------------------|
|-3--3--3--3--3--3--3--3--3--3--3--3-|---times-- |-5--5--5--5...-until-end-fade---|