Cure - A Night Like This Chords & Tabs

 

A Night Like This Chords & Tabs

Cure Chords & Tabs

Version: 1 Type: Bass Tab 0 ratings
1 star 2 stars 3 stars 4 stars 5 stars
comments

A Night Like This Bass Tab

hope you enjoy it
A night like this
July 1985
by The Cure 
(R. Smith)
from the album Staring at the sea - The singles
Transcribed by Luís Graça

Here's one of the best songs i've ever heard, it's absolutely perfect and no one have ever tabbed it, so i did. Hope you enjoy. Any comments send to 1386@ufp.pt See ya.

Pattern 1
G|---------------------------------------------|
D|---------------------------------------------|
A|-------------5--5--7------------5--5--7---|
E|---2--2--0-------------7--7--5-------------|
[ Tab from: http://www.guitartabs.cc/tabs/c/cure/a_night_like_this_btab.html ]
Pattern 2
G|------------------------------------------------------------------------------|
D|------------------------------------------------------------------------------|
A|---4--4--2--2--4--4--2--2--4--4--2--2--4--4--2--2---------------------|
E|------------------------------------------------------------4--4--0--0--0---|

Pattern 3
G|-----------------------------------------|
D|-----------------------4--4--4--6--7--|
A|---5--5-----7--7--4-------------------|
E|----------7------------------------------|


Pattern 1 - X8
Pattern 2 - X1
Pattern 1 - X6
Pattern 2 - X1
Pattern 3 - X2
Pattern 1 - X4
Pattern 2 - X1
Pattern 3 - X4

_________________________________________________________________________
|			"I'm coming to find you, even if it takes	|
|				all night" - The Cure		    	|
|_______________________________________________________________________|

Comments