Cure - 10-15 Saturday Night Chords & Tabs

 

10-15 Saturday Night Chords & Tabs

Cure Chords & Tabs

Version: 2 Type: Tab 0 ratings
1 star 2 stars 3 stars 4 stars 5 stars
comments

10-15 Saturday Night Tab

   
Here it is. It is pretty simple. The hardest part is the transitions in the begining. 
then that it is pretty simple.

This is the intro/and other parts whatever you want to call them. Use kind of a bouncing 
It is easiest if you just strum down and bounce with your left hand.(Those 10-9-8 is 
to be one note the 10's just throw it off, and on the last one do a quick down up strum)
E-----------------------------------------------------------------------|
A-----------------------------------------------------------------------|
D-12-12-12-12-12-12-12-12-10-10-10-10-10-10-10-10-8-8-8-8-8-8-8-8-10-10-|
G-10-10-10-10-10-10-10-10-9--9--9--9--9--9--9--9--7-7-7-7-7-7-7-7-9--9--|
B-10-10-10-10-10-10-10-10-8--8--8--8--8--8--8--8--6-6-6-6-6-6-6-6-8--8--|
e-----------------------------------------------------------------------|
                (x4)
There is a little solo in the begining it goes like this
E---------|
A---------|
D-12---12-|
G---------|
B--10-----|
E---10----|
[ Tab from: http://www.guitartabs.cc/tabs/c/cure/10_15_saturday_night_tab_ver_2.html ]
Then the part before the singing is easy(Tje struming is still bounce with with alittle
bit of up down)
E5-5-5-5-3-3-3-3-|
A7-7-7-7-5-5-5-5-|
D7-7-7-7-5-5-5-5-|
    (x4)
The verse goes
E-----------------------------------------|
A-8--8--8--8--8--8--8--8--7-7-7-7-7-7-7-7-|
D-10-10-10-10-10-10-10-10-9-9-9-9-9-9-9-9-|
G-10-10-10-10-10-10-10-10-9-9-9-9-9-9-9-9-|
B-----------------------------------------|
e-----------------------------------------|
                (x4)
(On the third time threw this play the 7-9-9- 8 times then do an up down strum fast)

There is a solo it goes
E------------------------------------------------------------------------|
A---------------12-10-12----------------12-10-12----------------12-10-12-|
D13-12-10-12-10----------13-12-10-12-10----------13-12-10-12-10----------|
G------------------------------------------------------------------------|
B------------------------------------------------------------------------|
e------------------------------------------------------------------------|

E-------------------------------------|
A-------------------------------------|
D-13-12-10-9--------------------------|
G--------------------------15--15--15-|
B------------15-16-15-16-15--15--15---|
e-------------------------------------|

This is a bass solo but still fun.
E--------------------------------|
A------------------------------3-|
D0-2-3-2-3-5-3-2-3-5-7-2-3-2-0---|
G--------------------------------|
B--------------------------------|
B--------------------------------|

The last solo is the same as the begining just double the e-10 B-10

Make sure to vote on this I'd appreciate any feed back as well thanks

-Matt
Comments