Culture Shock - Killing Fields Chords & Tabs

 

Killing Fields Chords & Tabs

Culture Shock Chords & Tabs

Version: 1 Type: Tab 0 ratings
1 star 2 stars 3 stars 4 stars 5 stars
comments

Killing Fields Tab

CULTURE SHOCK
TRANSPORTATION


 E-----------------------------------------------------------------------
 B-----------------------------------------------------------------------
 G-----------------------------------------------------------------------
 D----9----9---9---9---7---7---7---7---5---5---5---5---5---5---5---5
 A--7---7----7---7---5---5---5---5---3---3---3---3---2---3---2---2--
 E------------------------------------------------------------------------

 E-----------------------------------------------------------------------
 B-----------------------------------------------------------------------
 G-----------------------------------------------------------------------
 D--9----9---9----9----9----9----9----9-------------------------------
 A- 7--7---7---7----7----7----7----7--------Repeat-------------------
 E--0-------------------------------------------------------0-------------

Chords
[ Tab from: http://www.guitartabs.cc/tabs/c/culture_shock/killing_fields_tab.html ]
E  / / / / / /
D / / / / / /
C / / / / / /
D / / / / / /
E / / / / / /
D / / / / / /
 E-----------------------------------------------------------------------
 B-----------------------------------------------------------------------
 G-----------------------------------------------------------------------
 D--5---5-- 5---5---5--- 5---5-- 5-------------------------------------
 A--3---3---2---2---3---3---2---2-------------------------------------
 E------------------------------------------------------------------------

Later Riff

 E-----------------------------------------------------------------------
 B-----------------------------------------------------------------------
 G-----------------------------------------------------------------------
 D--9-X-X-9-9-9-X-X-X-7-7-7-X-X-X-5-5-5-5-5----------------------
 A--7-X-X-7-7-6-X-X-X-5-5-4-X-X-X-3-2-3-2-3----------------------
 E------------------------------------------------------------------------
Comments