Cultra - We Don't Care Chords & Tabs

 

We Don't Care Chords & Tabs

Cultra Chords & Tabs

Version: 1 Type: Tab 1 rating
1 star 2 stars 3 stars 4 stars 5 stars
comments

We Don't Care Tab

INTRO
Played by bass no guitar till the verse.

Verse
e----------------------|
b----------------------|
G----------------------|(x3)
D-------77--------33---|         Bass starts out on the forth time guitar comes in
A-02320-77--02320-33---|
E-------55--------11---|

Chorus
e----------------------|
b----------------------|
G----------------------|(X2)
D-333333-777777---22222|
A-333333-777777---22222|
E-111111-555555---00000|

Verse
e----------------------|
b----------------------|
G----------------------|(x6)
D-------77--------33---|         
A-02320-77--02320-33---|
E-------55--------11---|
[ Tab from: http://www.guitartabs.cc/tabs/c/cultra/we_dont_care_tab.html ]
Then a guitar solo comes right after that the bass comes in with a solo.

Guitar solo

e--------------------------------------------------------------
b--------------------------------------------------------------
G----11-9/8-------9-7/9--11------11-10-9/8--------9-7/9--11----
D-9---------9-7-7-----------9~-9------------9-7-7-----------9~-
A--------------------------------------------------------------
E--------------------------------------------------------------


Outro
e-------------|
b-------------|
G-------------|
D-333-777-2~--|
A-333-777-2~--|
E-111-555-0~--|

Definately correct correct because i made the whole song
Comments