Cultra - Lost Chords & Tabs

 

Lost Chords & Tabs

Cultra Chords & Tabs

Version: 1 Type: Tab 1 rating
1 star 2 stars 3 stars 4 stars 5 stars
comments

Lost Tab

WWW.GUITARTABS.CC
Tabber:stanthemantbb
Band Name:Cultra
Song Name:Lost

Intro/Outro
e-----------------------------------------------------------------------------------------------|
b-----7-------------11-------------3---------5--------7------------11-----------5--------7------|
G----7-7-7-------11---11---11-----3-3-3-----5-5-5----7-7-7-------11--11--11----5-5-5----7-7-7---|
D-7-7---7---11-11-------11-----3-3---3---5-5---5--7-7---7---11-11------11---5-5---5--7-7---7----|
A-5---------8------------------1---------3--------5---------8---------------3--------5----------|
E-5---------8------------------1---------3--------5---------8---------------3--------5----------|
[ Tab from: http://www.guitartabs.cc/tabs/c/cultra/lost_tab.html ]
Verse1
e--------------------------------------------------------|(X1)
b--------------------------------------------------------|
G--------------------------------------------------------|
D-7777-11111111----3333--5555-7777-11111111----5555-7777-|
A-7777-11111111----3333--5555-7777-11111111----5555-7777-|
E-5555-8-8-8-8--0~-1111--3333-5555-8-8-8-8--0~-3333-5555-|
  **** * * * *     ****  **** **** * * * *     **** ****

Verse 2
e--------------------------------------------------------|(X2)
b--------------------------------------------------------|
G--------------------------------------------------------|
D-7777-11111111----3333--5555-7777-11111111----5555-7777-|
A-7777-11111111----3333--5555-7777-11111111----5555-7777-|
E-5555-8-8-8-8--0~-1111--3333-5555-8-8-8-8--0~-3333-5555-|

Chorus
e---------------| (X2)
b---------------|
G---------------|
D-222--888--555-|
A-222--888--555-|
E-000--666--333-|

Intro/Outro
e-----------------------------------------------------------------------------------------------|
b-----7-------------11-------------3---------5--------7------------11-----------5--------7------|
G----7-7-7-------11---11---11-----3-3-3-----5-5-5----7-7-7-------11--11--11----5-5-5----7-7-7---|
D-7-7---7---11-11-------11-----3-3---3---5-5---5--7-7---7---11-11------11---5-5---5--7-7---7----|
A-5---------8------------------1---------3--------5---------8---------------3--------5----------|
E-5---------8------------------1---------3--------5---------8---------------3--------5----------|



Comments