Cult - She Sells Sanctuary Chords & Tabs

 

She Sells Sanctuary Chords & Tabs

Cult Chords & Tabs

Version: 1 Type: Tab 0 ratings
1 star 2 stars 3 stars 4 stars 5 stars
comments

She Sells Sanctuary Tab

   
-------------------------------------------------------------------------------
		          She Sells Sanctuary - The Cult
-------------------------------------------------------------------------------

Tabbed by: Steve Hardy
Email: dirtyanimal86@hotmail.com

This is only the essential riff!!!


e|---------------------------------------------------------------------------|
B|---------------------------------------------------------------------------|
G|-----------14-----------14----14-----------------14------11----------------|
D|-----------0------------0-----0------------------0-------0-----------------|
A|---------------------------------------------------------------------------|
E|---------------------------------------------------------------------------|

e|---------------------------------------------------------------------------|
B|---------------------------------------------------------------------------|
G|--------12---------11\-----7------------7---------7------7-----------------|
D|--------0----------0-------0------------0---------0------0-----------------|
A|---------------------------------------------------------------------------|
E|---------------------------------------------------------------------------|
[ Tab from: http://www.guitartabs.cc/tabs/c/cult/she_sells_sanctuary_tab.html ]
e|---------------------------------------------------------------------------|
B|---------------------------------------------------------------------------|
G|------------5---------5----7-------------7---------2/----------------------|
D|------------0---------0----0-------------0---------0-----------------------|
A|---------------------------------------------------------------------------|
E|---------------------------------------------------------------------------|

e|---------------------------------------------------------------------------|
B|---------------------------------------------------------------------------|
G|---------12-----11------7----------7-----------7/--------------------------|
D|---------0------0-------0----------0-----------0---------------------------|
A|---------------------------------------------------------------------------|
E|---------------------------------------------------------------------------|

e|---------------------------------------------------------------------------|
B|---------------------------------------------------------------------------|
G|----------12--------11------7-----------7----------------------------------|
D|----------0---------0-------0-----------0----------------------------------|
A|---------------------------------------------------------------------------|
E|---------------------------------------------------------------------------|

Use downstrokes on the beats but upstrokes for the off-beats.


| /  slide up
| \  slide down
| h  hammer-on
| p  pull-off
| ~  vibrato
| +  harmonic
| x  Mute note

===============================================================================
Comments