Cult - Lil Devil Chords & Tabs

 

Lil Devil Chords & Tabs

Cult Chords & Tabs

Version: 3 Type: Tab 0 ratings
1 star 2 stars 3 stars 4 stars 5 stars
comments

Lil Devil Tab

   
A5
5 7 7 x x xD5
x 5 7 7 x x  Gtr I (E A D G B E) - 'Billy Duffy - Rhythm w/heavy crunch'
Gtr II (E A D G B E) - 'Billy Duffy - Lead w/dist'
Gtr III (E A D G B E) - 'Billy Duffy - Rhythm w/heavy crunch'

Intro
  Q=127
 4/4
  Gtr I
                                 ~
  E E E E E Q      E   +E  E E E Q  E E
|--------------------|------------------|
|--------------------|------------------|
|-2-2--------------2-|-(2)-2--------2-2-|
|-0-0-3-4---4b4.5--0-|-(0)-0-3p0----0-0-|
|--------------------|-----------3------|
|--------------------|------------------|
|-Riff A                     end Riff A-|

                                     ~
Riff A x3


   Verse
    E E E E +Q   Q    E E E E +Q   Q       H     H
||------------------|------------------||-------------|
||o-----------------|-----------------o||-10\----5----|
||----7---7-(7)-----|---7---7-(7)------||-10\----5----|
||----7---7-(7)-----|---7---7-(7)------||-10\----5----|
||o---5---5-(5)-----|---5---5-(5)-----o||--8\----3----|
||------------------|------------------||-------------|


    E E E E +Q   Q   4x  H     H      E E E E +Q   Q
||-------------------||-------------|-----------------||
||o-----------------o||-10\----5----|-----------------||
||----7---7-(7)------||-10\----5----|---7---7-(7)-----||
||----7---7-(7)------||-10\----5----|---7---7-(7)-----||
||o---5---5-(5)-----o||--8\----3----|---5---5-(5)-----||
||-------------------||-------------|-----------------||


 Chorus
  $
                      D5
  Gtr II
  W                E  E E E +Q  Q    W                E  E E E +Q  Q
                      |   |  |                           |   |  |
                      /   /  /                           /   /  /

  Gtr I
                             ~~                                 ~~
  H    Q  +E  E   +E  E E E  Q  Q    H    Q  +E  E   +E  E E E  Q  Q
|---------------|------------------|---------------|-------------------|
|-3----1--(1)---|------------------|-1----1--(1)---|-------------------|
|-0----0--(0)-2-|-(2)-2------------|-0----0--(0)-2-|-(2)-2-------------|
|-0----2--(2)-0-|-(0)-0-3p0-----0--|-3----2--(2)-0-|-(0)-0-3p0-----0---|
|------3--(3)---|------------3-----|-3----3--(3)---|------------3------|
|-3-------------|------------------|---------------|-------------------|


                                                  To Coda
                      D5
  W                E  E E E +Q  Q    W          W
                      |   |  |
                      /   /  /

  H    Q  +E  E   +E  E E E  Q  Q    W          W
|---------------|------------------|----------|-----------||
|-3----1--(1)---|------------------|-1--------|-1---------||
|-0----0--(0)-2-|-(2)-2------------|-0--------|-0---------||
|-0----2--(2)-0-|-(0)-0-4p0-----0--|-3--------|-2---------||
|------3--(3)---|------------3-----|-3--------|-3---------||
|-3-------------|------------------|----------|-----------||


 Pre-Verse
 Riff A x2f


   Verse
    E E E E +Q   Q   4x     E E E E +Q   Q      E E E E E Q      E
||-------------------||-||-------------------||--------------------|
||o-----------------o||-||o-----------------o||--------------------|
||----7---7-(7)------||-||----5---5-(5)------||-2-2--------------2-|
||----7---7-(7)------||-||----5---5-(5)------||-0-0-3-4---4b4.5--0-|
||o---5---5-(5)-----o||-||o---3---3-(3)-----o||--------------------|
||-------------------||-||-------------------||--------------------|


                                                            D.S. al Coda
            ~
  +E  E E E Q  Q      E E E E +Q   Q   4x  H     H      E E E E +Q   Q
|-----------------||-------------------||-------------|------------------||
|-----------------||o-----------------o||-10\----5----|------------------||
|-(2)-2--------2--||----7---7-(7)------||-10\----5----|---7---7-(7)------||
|-(0)-0-3-0----0--||----7---7-(7)------||-10\----5----|---7---7-(7)------||
|-----------3-----||o---5---5-(5)-----o||--8\----3----|---5---5-(5)------||
|-----------------||-------------------||-------------|------------------||


 Guitar Solo
  &
  Gtr I
|-Rhy Fig 1              end Rhy Fig 1-|
  A5
  E E Q   H             E  E Q   H
  | |                   |  |
  / /                   /  /

  Gtr II
                                 ~
  E E E E E Q      E   +E  E E E Q  E E
|--------------------|------------------|
|--------------------|------------------|
|--------------------|------------------|
|--------------------|------------------|
|-0-0-3-4---4b4.5--0-|-(0)-0-3p0----0-0-|
|--------------------|-----------3------|


w/Rhy Fig 1 x2
[ Tab from: http://www.guitartabs.cc/tabs/c/cult/lil_devil_tab_ver_3.html ]
  +E  E E E E E E E   E E E E +E  E E E
|-------------------|--------------------|
|-------------------|--------------------|
|-------------------|-------2-(2)--------|
|-------------------|--------------------|
|-(0)-3-0---3-0---3-|-0---0-------0-0-0--|
|---------3-----3---|---3----------------|



  +E  E E E E E E E   E E H      Q
|-------------------|---------------|
|-------------------|---------------|
|-----2p0---2p0---2p|=0---2/-----0--|
|-------------------|------------0--|
|-(0)-----0-----0---|---0-----------|
|-------------------|---------------|


        q          Q          H
        |
        /

  A    +Q    A    +Q    A    +Q    A    +Q
|---------------------------------------------|
|-7b8==(7)r--7b8==(7)r--7b8==(7)r--7b8==(7)r--|
|-7b8==(7)r--7b8==(7)r--7b8==(7)r--7b8==(7)r--|
|---------------------------------------------|
|---------------------------------------------|
|---------------------------------------------|


                                      |-w/Riff A x3 (Gtr III)
                                      |-Rhy Fig 2                         end Rhy Fig 2-|
                                           D5
  W                                        E    E     Q                  H
                                           |    |
                                           /    /

  a    +Q   a   +Q   a   +Q    E  E       +E    S  S  S  S  a      +E   +Q      S  +S   E
|--------------------------------------|----------10--------------------------------------|
|-7b8=(7)r--7b8=(7)r-7b8=(7)r--0-------|-------10----13p10-13b15==(13)-(13)----13r(13)-10-|
|-7b8=(7)r--7b8=(7)r-7b8=(7)r----12b14=|=(12)r--------------------------------------------|
|--------------------------------------|--------------------------------------------------|
|--------------------------------------|--------------------------------------------------|
|--------------------------------------|--------------------------------------------------|


w/Rhy FIg 2 x4

   S      +S       E   S      +S       E  +E    E  E  A      +E
|----------------------------------------------------13b15==(13)-|
|-13b14==(13)b15==13r-13b14==(13)b15==13-(13)r-13-10-------------|
|----------------------------------------------------------------|
|----------------------------------------------------------------|
|----------------------------------------------------------------|
|----------------------------------------------------------------|



   +Q     +E    E  +E   E      A  A  E  E    E   E      E  E       +E     E  E  E
|-(13)---(13)r-13-(13)-10h====13p10----10-|---------------------------------13-15-|
|-----------------------------------13----|-13--13pb15-13-13pb15==(13)r-/15-------|
|-----------------------------------------|---------------------------------------|
|-----------------------------------------|---------------------------------------|
|-----------------------------------------|---------------------------------------|
|-----------------------------------------|---------------------------------------|



                              ~~~~~~~~~~~
   A        +Q     +E   E  E  E      +Q
|-15b16.5==(15)r==(15)-13-15----------------|
|----------------------------15-----(15)----|
|-------------------------------------------|
|-------------------------------------------|
|-------------------------------------------|
|-------------------------------------------|


   E   E  Q               H                     q     Q   H
   |   |                                        |
   /   /                                        /

   E   E  E  A      +E   +Q    +E  E    A      +Q     Q   E  E  A      +Q
|-13--17-19-17b19==(17)-(17)r=(17)---|-13b15==(13)r--13-----10---------------|
|------------------------------------|-------------------10----13b15==(13)r--|
|------------------------------------|---------------------------------------|
|------------------------------------|---------------------------------------|
|------------------------------------|---------------------------------------|
|------------------------------------|---------------------------------------|


           W
   A      +E   Q   S  +S   H
|-------------------------------------||
|-13b15==(13)-13--13r(13)-10b10.5\----||
|-------------------------10b10.5\----||
|-------------------------------------||
|-------------------------------------||
|-------------------------------------||


   Out-Chorus
                                     1.,2.,3.
    Gtr I
                              ~                                 ~
    H    Q  +E  E   +E  E E E Q  Q    H    Q  +E  E   +E  E E E Q  Q
||----------------|-----------------|---------------|------------------||
||o-3----1--(1)---|-----------------|-1----1--(1)---|-----------------o||
||--0----0--(0)-2-|-(2)-2-----------|-0----0--(0)-2-|-(2)-2------------||
||--0----2--(2)-0-|-(0)-0-3p0----0--|-3----2--(2)-0-|-(0)-0-3p0----0---||
||o------3--(3)---|-----------3-----|-3----3--(3)---|-----------3-----o||
||--3-------------|-----------------|---------------|------------------||


  4.
  W          W          +W           +W           q  Q  H
|----------|----------|------------|------------|------------*|
|-1--------|-1--------|-(1)--------|-(1)--------|-3----------*|
|-0--------|-0--------|-(0)--------|-(0)--------|-2----------*|
|-3--------|-2--------|-(2)--------|-(2)--------|-0----------*|
|-3--------|-3--------|-(3)--------|-(3)--------|------------*|
|----------|----------|------------|------------|------------*|
Comments