Cult - Lil Devil Chords & Tabs

 

Lil Devil Chords & Tabs

Cult Chords & Tabs

Version: 2 Type: Bass Tab

Lil Devil Bass Tab

   
Title: Lil' Devil
Artist: The Cult
Album: The Singles
Tabber: Steph
Email: cyberbassist@hotmail.com


Intro: 
   D
G|-----------------------------------------------------------------------|
D|-----------------------------------------------------------------------|
A|-5-5-5-5-5-5-5-5-5-5-5-5-5-5-5-5-5-5-5-5-5-5-5-5-5-5-5-5-5-5-5-5/10----|
E|-----------------------------------------------------------------------|

Verse1:
   D
G|-----------------------------------------------------------------------|
D|-----------------------------------------------------------------------|
A|-5-5-5-5-5-5-5-5-5-5-5-5-5-5-5-5-5-5-5-5-5-5-5-5-5-5-5-5-5-5-5-5-------|
E|-----------------------------------------------------------------------|

   F       C       D
G|-----------------------------------------------------------------------|
D|-3-3-3-3---------------------------------------------------------------|
A|---------3-3-3-3-5-5-5-5-5-5-5-5-5-5-5-5-5-5-5-5-----------------------|
E|-----------------------------------------------------------------------|

   D                               F       C       D
G|-----------------------------------------------------------------------|
D|---------------------------------3-3-3-3-------------------------------|
A|-5-5-5-5-5-5-5-5-5-5-5-5-5-5-5-5---------3-3-3-3-5-5-5-5-5-5-5-5-------|
E|-----------------------------------------------------------------------|

Chorus:
   G       C       D               F       C       D
G|-----------------------------------------------------------------------|
D|-5-5-5-5-------------------------3-3-3-3-------------------------------|
A|---------3-3-3-3-5-5-5-5-5-5-5-5---------3-3-3-3-5-5-5-5-5-5-5-5-------|
E|-----------------------------------------------------------------------|

   G       C       D                 F   C
G|-----------------------------------------------------------------------|
D|-5-5-5-5---------------------------3~----------------------------------|
A|---------3-3-3-3-5-5-5-5-5-5-5-5-------3~------------------------------|
E|-----------------------------------------------------------------------|

   D
G|-----------------------------------------------------R-----------------|
D|-----------------------------------------------------E-----------------|
A|-5-5-5-5-5-5-5-5-5-5-5-5-5-5-5-5-5-5-5-5-5-5-5-5---5-S-----------------|
E|-----------------------------------------------------T-----------------|
[ Tab from: http://www.guitartabs.cc/tabs/c/cult/lil_devil_btab_ver_2.html ]

Verse2:
   D
G|-----------------------------------------------------------------------|
D|-----------------------------------------------------------------------|
A|-5-5-5-5-5-5-5-5-5-5-5-5-5-5-5-5-5-5-5-5-5-5-5-5-5-5-5-5-5-5-5-5-------|
E|-----------------------------------------------------------------------|

   C                               D
G|-----------------------------------------------------------------------|
D|-----------------------------------------------------------------------|
A|-3-3-3-3-3-3-3-3-3-3-3-3-3-3-3-3-5-5-5-5-5-5-5-5-5-5-5-5-5-5-5-5-------|
E|-----------------------------------------------------------------------|

   D
G|-----------------------------------------------------------------------|
D|-----------------------------------------------------------------------|
A|-5-5-5-5-5-5-5-5-5-5-5-5-5-5-5-5-5-5-5-5-5-5-5-5-5-5-5-5-5-5-5-5-------|
E|-----------------------------------------------------------------------|

   F   C   D
G|-----------------------------------------------------------------------|
D|-3~--------------------------------------------------------------------|
A|----3~---5-5-5-5-5-5-5-5-----------------------------------------------|
E|-----------------------------------------------------------------------|

SOlo:
   A
G|-----------------------------------------------------------------------|
D|-----------------------------------------------------------------------|
A|-----------------------------------------------------------------------|
E|-5-5-5-5-5-5-5-5-5-5-5-5-5-5-5-5-5-5-5-5-5-5-5-5-5-5-5-5-5-0-3-5-------|


G|-------------------------------------R---------------------------------|
D|-------------------------------------E---------------------------------|
A|-------------------------------------S---------------------------------|
E|-5-5-5-5-5-5-5-5-5-5-5-5-5-5-5-5---5-T---------------------------------|

   D
G|-----------------------------------------------------------------------|
D|-----------------------------------------------------------------------|
A|-5-5-5-5-5-5-5-5-5-5-5-5-5-5-5-5-5-5-5-5-5-5-5-5-5-5-5-5-5-5-5-5-------|
E|-----------------------------------------------------------------------|

G|-----------------------------------------------------------------------|
D|-----------------------------------------------------------------------|
A|-5-5-5-5-5-5-5-5-5-5-5-5-5-5-5-5---5~----------------------------------|
E|-----------------------------------------------------------------------|

Keep it simple. EnJOy!
cyberbassist