Cult - Lil Devil Chords & Tabs

 

Lil Devil Chords & Tabs

Cult Chords & Tabs

Version: 1 Type: Bass Tab 0 ratings
1 star 2 stars 3 stars 4 stars 5 stars
comments

Lil Devil Bass Tab

Intro
g------------------|-----------------|-----------------|------------------|
d--0-0-0-0-0-0-0-0-|-0-0-0-0-0-0-0-0-|-0-0-0-0-0-0-0-0-|-0-0-0-0-0-0-0-/5-|
a------------------|-----------------|-----------------|------------------|
e------------------|-----------------|-----------------|------------------|

Verse
g------------------|-----------------|-----------------|---------------|
d--0-0-0-0-0-0-0-0-|-0-0-0-0-0-0-0-0-|-0-0-0-0-0-0-0-0-|-0-0-0-0-0-0-0-|
a------------------|-----------------|-----------------|---------------|
e------------------|-----------------|-----------------|---------------|

g----------|---------|---------------|
d--3-3-3-3-|---------|-0-0-0-0-0-0-0-|
a----------|-3-3-3-3-|---------------|
e----------|---------|---------------|

Chorus
g----------|---------|-----------------|---------|---------|----------------|
d--5-5-5-5-|---------|-0-0-0-0-0-0-0-0-|-5-5-5-5-|---------|-0-0-0-0-0-0-0--|
a----------|-3-3-3-3-|-----------------|---------|-3-3-3-3-|----------------|
e----------|---------|-----------------|---------|---------|----------------|

g----------|---------|
d--5-------|---------|
a----------|-3-------|
e----------|---------|
[ Tab from: http://www.guitartabs.cc/tabs/c/cult/lil_devil_btab.html ]
Verse 2
g------------------|-----------------|-----------------|---------------|
d--0-0-0-0-0-0-0-0-|-0-0-0-0-0-0-0-0-|-0-0-0-0-0-0-0-0-|-0-0-0-0-0-0-0-|
a------------------|-----------------|-----------------|---------------|
e------------------|-----------------|-----------------|---------------|

g------------------|-----------------|-----------------|---------------|
d------------------|-----------------|-0-0-0-0-0-0-0-0-|-0-0-0-0-0-0-0-|
a--3-3-3-3-3-3-3-3-|-3-3-3-3-3-3-3-3-|-----------------|---------------|
e------------------|-----------------|-----------------|---------------|

During solo
g------------------|-----------------|-----------------|---------------|
d--0-0-0-0-0-0-0-0-|-0-0-0-0-0-0-0-0-|-0-0-0-0-0-0-0-0-|-0-0-0-0-0-0-0-|
a------------------|-----------------|-----------------|---------------|
e------------------|-----------------|-----------------|---------------|

g------------------|-----------------|-----------------|---------------|
d--0-0-0-0-0-0-0-0-|-0-0-0-0-0-0-0-0-|-0-0-0-0-0-0-0-0-|-0-0-0-0-0-0-0-|
a------------------|-----------------|-----------------|---------------|
e------------------|-----------------|-----------------|---------------|

Intro
Verse
Chorus
Verse 2
Verse
Chorus
Solo
Verse
Chorus
Comments