Cueshe - Ulan Chords & Tabs

 

Ulan Chords & Tabs

Cueshe Chords & Tabs

Version: 5 Type: Tab

Ulan Tab

Song: Ulan
Artist: Cueshe
Tabbed By: nigelcute69@yahoo.com

Hi, tagal ko na di nakakapagsubmit ng tab dito sa UG. Huling tab ko sa Chicosci pa.
Baka lang gusto niyo nito. Tignan niyo yung solo. Galing diba?

Standard Tuning

Intro:
Effect: Phaser
E|-----------------------2--| (2x)
B|-----------2--------------|
G|--4----4------3----3------|
D|--4--4---4----4--4---4----|
A|--2-----------2-----------|
E|--------------------------|

Pre-Verse
Effect: Distortion
Guitar 1
E|--------------------------------------------------------|
B|--------------------------------------------------------|
G|--4-4-4-4-4-4---------8-8-8-8-8-8-8-8-------------------|
D|--4-4-4-4-4-4-(pause)-8-8-8-8-8-8-8-8-6-6-6-6-6-6----2--|
A|--2-2-2-2-2-2---------6-6-6-6-6-6-6-6-6-6-6-6-6-6----2--|
E|--------------------------------------4-4-4-4-4-4----0--|

Guitar 2

E|---------------------------------------------------|
B|---------------------------------------------------|
G|--16-16-16-16-16-16----20-20-20-20-20-20-20-20-20--|
D|---------------------------------------------------|
A|--14-14-14-14-14-14----18-18-18-18-18-18-18-18-18--|
E|---------------------------------------------------|

E|----------------------------|
B|----------------------------|
G|--13-13-13-13-13-13----9----|
D|----------------------------|
A|--11-11-11-11-11-11----7----|
E|----------------------------|

1st Verse
Guitar 1 only (strum)
Clean
E|-------------2--------------| (2x)
B|-------------2--------------|
G|----4--------3--------------|
D|----4--------4--------------|
A|----2--------2--------------|
E|----------------------------|

Pre-Chorus
Both Guitars
Distortion
“tulad ng paghihirap…”       “ng aking pagsisikap…”
E|---------------------------------------------------------|
B|---------------------------------------------------------|
G|---------9----4----8--------------4----------------------|
D|----6----9----4----8----6----5----4----4-----------------|
A|----6----7----2----6----6----5----2----4-----------------|
E|----4-------------------4----3---------2-----------------|

Pre-Verse

2nd Verse
Guitar 1 (strum)
Clean
E|-------------2--------------| (2x)
B|-------------2--------------|
G|----4--------3--------------|
D|----4--------4--------------|
A|----2--------2--------------|
E|----------------------------|

Guitar 2
Phaser
E|-------------2--------------| (2x)
B|-------------2--------------|
G|----4--------3--------------|
D|----4--------4--------------|
A|----2--------2--------------|
E|----------------------------|

Pre-Chorus
Both Guitars
Distortion
“pero mahirap lang na tanggapin…”  “gitna ng dilim…”
E|-----------------------------------------------------------|
B|-----------------------------------------------------------|
G|---------9----4----8--------------4---------4--------------|
D|----6----9----4----8----6----5----4----4----4----4----2-2--|
A|----6----7----2----6----6----5----2----4----2----4----2-2--|
E|----4-------------------4----3---------2---------2----0-0--|
[ Tab from: http://www.guitartabs.cc/tabs/c/cueshe/ulan_tab_ver_5.html ]
Chorus
Both Guitars
Distortion
E|------------------------4---------------------------|
B|------------------------5---------------------------|
G|----4----8---------6----6----9----4-----------------|
D|----4----8----6----6----6----9----4----4----2-2-----|
A|----2----6----6----4----4----7----2----4----2-2-----|
E|--------------4------------------------2----0-0-----|

Both Guitars
Distortion
E|------------------------4---------------------|
B|------------------------5---------------------|
G|----4----8---------6----6----9----------------|
D|----4----8----6----6----6----9----------------|
A|----2----6----6----4----4----7----------------|
E|--------------4-------------------------------|


SOLO!!!
dun sa video nakita ko ginagamitan ng tapping yung solo pero di ako marunong mag tapping. Pwede na to.
Guitar 1
E|--/11--11--11--11--11--9----/11--11--11--11--11--9--------|
B|-----------------------------------------------------12---|
G|----------------------------------------------------------|
D|----------------------------------------------------------|
A|----------------------------------------------------------|
E|----------------------------------------------------------|

E|----/16--19--16--19---------------------------12------14--|
B|-----------------------14-------------14--16------16------|
G|------------------------X---------------------------------|
D|-----------------------11---------------------------------|
A|----------------------------------------------------------|
E|----------------------------------------------------------|

E|--14--12--------------------------------------------------|
B|----------16--14--12------12---------12-------12----14-12-|
G|----------------------15----------11-------11----11-------|
D|--------------------------------9-------11----------------|
A|----------------------------------------------------------|
E|----------------------------------------------------------|

E|-----------------------------12-11------------------------|
B|--------------12-------12----------12---------------------|
G|----8-11---11-------------11------------------------------|
D|--9------9-------11-13------------------------------------|
A|----------------------------------------------------------|
E|----------------------------------------------------------|

Guitar 2
Distortion
E|----------------------------------|
B|----------------------------------|
G|----4----3---------6---------4----|
D|----4----3----6----6----4----4----|
A|----2----1----6----4----4----2----|
E|--------------4---------2---------|

3rd Verse: Piano

Pre-Chorus

Chorus
Both Guitars
Distortion
E|------------------------4---------------------------| (2x)
B|------------------------5---------------------------|
G|----4----8---------6----6----9----4-----------------|
D|----4----8----6----6----6----9----4----4----2-2-----|
A|----2----6----6----4----4----7----2----4----2-2-----|
E|--------------4------------------------2----0-0-----|

Bridge
Both Guitars
“lalalalalala…”
E|---------------------------------|
B|---------------------------------|
G|--4---------------2-------4------|
D|--4--4----6--4----2--2----4------|
A|--2--4----6--4----0--2----2------|
E|-----2----4--2-------0-----------|

2nd Solo
Guitar 1

Guitar 2
E|---------------------------------|
B|---------------------------------|
G|--4---------------2-------4------|
D|--4--4----6--4----2--2----4------|
A|--2--4----6--4----0--2----2------|
E|-----2----4--2-------0-----------|

Outro
E|-----------------------|
B|-----------------------|
G|------4----------------|
D|--4h6----6p4-----------|
A|-------------6--2------|
E|-----------------------|