Cueshe - Stay Chords & Tabs

 

Stay Chords & Tabs

Cueshe Chords & Tabs

Version: 1 Type: Tab 0 ratings
1 star 2 stars 3 stars 4 stars 5 stars
comments

Stay Tab

Title: Stay
Artist: Cueshe'
Tabbed by: Sungao
Age: 17      Likes: Playing guitar    Dislikes: Not playing Guitar
Date: 05 - 24 - 05

Intro
 Guitar 1 Clean [ A - C#m - D - E ]
 |----------------4--4--4--4---2--2--2--2---2--2--2--2-----|
 |---0--0--0--0---5--5--5--5---3--3--3--3---3--3--3--3-----|
 |---2--2--2--2---6--6--6--6---2--2--2--2---4--4--4--4-----|
 |---2--2--2--2---6--6--6--6----------------4--4--4--4-----|
 |----------------4--4--4--4----------------2--2--2--2-----|
 |---------------------------------------------------------|

Main Riff
 Guitar 1 [ E - A ]
 |----------------------------------------------------|
 |----------------------------------------------------|
 |---1--1--1--1--1--1--1------------------------------|
 |---2--2--2--2--2--2--2----7--7--7--7--7--7--7-------|  X2
 |---2--2--2--2--2--2--2----7--7--7--7--7--7--7-------|
 |--------------------------5--5--5--5--5--5--5-------|

Guitar 2
 |----------------------------------------------------------------|
 |----------------------------------------------------------------|
 |---11----13----11----13----------13----14----13----14-----------|
 |----x------x-----x------x---X5------x-----x------x------x---X5--|
 |----9--\--11----9--\--11-----------11----12----11----12---------|
 |----------------------------------------------------------------|

 |------------------------------------------------------|
 |------------------------------------------------------|
 |---11----13----11----13------------9------------------|
 |----x------x-----x------x---X5------x-----------------|
 |----9--\--11----9--\--11------------7-----------------|
 |------------------------------------------------------|

Verse
 Guitar 1 [ E - A ]
 |---------------------------0--0--0--0--0--0--0---------|
 |---------------------------0--0--0--0--0--0--0---------|
 |----1--1--1--1--1--1--1----2--2--2--2--2--2--2---------|
 |----2--2--2--2--2--2--2----2--2--2--2--2--2--2---------|
 |----2--2--2--2--2--2--2--------------------------------|
 |-------------------------------------------------------|

 Guitar 2 [ E - A ]
 |---------------------------7--7--7--7--7--7--7---------|
 |----5--5--5--5--5--5--5----9--9--9--9--9--9--9---------|
 |----6--6--6--6--6--6--6----9--9--9--9--9--9--9---------|
 |----7--7--7--7--7--7--7----9--9--9--9--9--9--9---------|
 |----7--7--7--7--7--7--7----7--7--7--7--7--7--7---------|
 |-------------------------------------------------------|

Refrain
 Guitar 1 [ B - C#m - D - E
 |----------------------------------------------------------|
 |----------------------------------------------------------|
 |----4--4--4--4---6--6--6--6---7--7--7--7---2--2--2--2-----|
 |----4--4--4--4---6--6--6--6---7--7--7--7---2--2--2--2-----|
 |----2--2--2--2---4--4--4--4---5--5--5--5---1--1--1--1-----|
 |----------------------------------------------------------|

 Guitar 2 [ B - C#m - D - E ]
 |----2--2--2--2---4--4--4--4---5--5--5--5---7--7--7--7------|
 |----4--4--4--4---5--5--5--5---7--7--7--7---9--9--9--9------|
 |----4--4--4--4---6--6--6--6---7--7--7--7---9--9--9--9------|
 |----4--4--4--4---6--6--6--6---7--7--7--7---9--9--9--9------|
 |----2--2--2--2---4--4--4--4---5--5--5--5---7--7--7--7------|
 |-----------------------------------------------------------|
[ Tab from: http://www.guitartabs.cc/tabs/c/cueshe/stay_tab.html ]
Chorus
 Both Guitars [ A - C#m - D - Bm ]
 |--------------------------------------------------------------|
 |--------------------------------------------------------------|
 |-----------------------------------7--7--7--7---4--4--4--4----|
 |----7-----------------------------7--7--7--7---4--4--4--4-----|
 |----7-----------------------------5--5--5--5---2--2--2--2-----|
 |----5---------------------------------------------------------|
 "so if u'd still go i'll understand........

 |-----------------------------------------------------------|
 |-----------------------------------------------------------|
 |--------------------6--6--6--6---7--7--7--7---4--4--4--4---|
 |----7--7--7--7---6--6--6--6---7--7--7--7---4--4--4--4------|
 |----7--7--7--7---4--4--4--4---5--5--5--5---2--2--2--2------|
 |----5--5--5--5---------------------------------------------|

Repeat Main Riff
Repeat Verse
Repeat Refrain
Repeat Chorus

Bridge
 Guitar 1 [ C - D - E ]
 |-------------------------------------------------------------------|
|--------------------------------------------------------------------|
 |----5--5--5--5---7--7--7--7---2--2--2--2--2--2--2--2--2------------|
 |----5--5--5--5---7--7--7--7---2--2--2--2--2--2--2--2--2------------|
 |----3--3--3--3---5--5--5--5---1--1--1--1--1--1--1--1--1------------|
 |-------------------------------------------------------------------|

 Guitar 2 [ Lead ]
 |-----------------------------------------14---15---17---15-14------|
 |-----------------------------------17------------------------------|
 |---5---7---12---11---15---7------16---16---16---16-----------------|
 |---x---x----x-----x-----x---x--------------------------------------|
 |---3---9---10----9----13---5---------------------------------------|
 |-------------------------------------------------------------------|

 |-----------15-p-14------15-p-14---------17----15----14----------------|
 |-------------------15-------------15----------------------------17----|
 |-----------------------16--------------14------16----16---16-----16~~-|
 |----------------------------------------------------------------------|
 |----------------------------------------------------------------------|
 |----------------------------------------------------------------------|

 |--------14---15---17---15-14----------13-/-14--13--------------------|
 |-17---------------------------------13~~----------------13-----------|
 |-----16---16---16---16--------------------------------------15--13---|
 |---------------------------------------------------------------------|
 |---------------------------------------------------------------------|
 |---------------------------------------------------------------------|

 |-----15-p-14------15-p-14---------17----15----14---------------|
 |-------------15-------------15-----------------------17--------|
 |---------------16--------------14------16----16---16-----16~~--|
 |---------------------------------------------------------------|
 |---------------------------------------------------------------|
 |---------------------------------------------------------------|

Repeat Chorus 2X

 Enters in the Last Chorus
 Guitar 2 [ Lead ]
 |---9-h-10--9--------------------------------------9-h-10--9--------------|
 |---------------10--------10-------12---------10---------------10---------|
 |-------------------9--11----9-11-----9--11------------------------9------|
 |-------------------------------------------------------------------------|
 |-------------------------------------------------------------------------|
 |-------------------------------------------------------------------------|
		            - Excreta -

Any comments, suggestions  sungao_punk@yahoo.com  09219762870
Comments