Cueshe - Stay Chords & Tabs

 

Stay Chords & Tabs

Cueshe Chords & Tabs

Version: 2 Type: Bass Tab 0 ratings
1 star 2 stars 3 stars 4 stars 5 stars
comments

Stay Bass Tab

   
#------------------------------------------------------------------------------#
#This file is the author's own work and represents their interpretation of the #
#song. You may only use this file for private study, scholarship, or research. #
#------------------------------------------------------------------------------#


Date: Wed, 10 Sept 2005 17:23:16 +0800
From: ck
Subject: TAB: Stay (Bass Tab) by Cueshι
Title:		Stay 
Band: 		Cueshι
Tabbed by:	ck
Email:	marckalen@yahoo.com
Tuning:	EADGBe


Play before rate!!

Tab i2 ng kapatid qo pnpa-post nia skin..ok 2! Testing nio.

E-mail nio na lang po me kung me konting tanong at comments pra macorrect natin!

"Ok Just Rok Pinoy Bands!" Support Our Own Pinoy Alternative bands...
===============================================================================


Intro:

G|-------------------------------------------------------------|
D|-------------------------------------------------------------|
A|-------------------------------------------------------------|
E|--00000--00000--000--55555—55555--55555—00000—00000—00000—5--|

Verse I:

G|-----------------------------------------------------------|
D|----------------------------------------------5/7----------|
A|------------------7-7-7h6p7--------------------------7-7/2-|
E|--0-0—3/5—55-0-0-------------00—1/5—5-5-00-0------0--------|

Refrain:

G|---------------------------------------------------|
D|---------------------------------------------------|
A|---------------------------------------------------|
E|--2-2-2-2-2/4-4-4-4-4/5-5-5-5—5h7-7-7-7-7-7/12---0-|

Chorus:

G|-----------------------------|
D|-----------------------------|
A|--0—-4—-5555555---2222222----|
E|-----------------------------|

[ Tab from: http://www.guitartabs.cc/tabs/c/cueshe/stay_btab_ver_2.html ]
G|-----------------------------------------------------|
D|-----------------------------------------------------|
A|------------4-4-444-4-44h5-555555---222222-pause-22--|
E|--5-5-555-5------------------------------------------|


Intro:

G|-------------------------------------------------------------|
D|-------------------------------------------------------------|
A|-------------------------------------------------------------|
E|--00000--00000--000--55555—55555--55555—00000—00000—00000—5--|

Verse II:

G|-----------------------------------|
D|-----------------------------------|
A|--------------------------5h7------|
E|-00-1/5—0-0-0-0-0-3/5—0-0-----0-0--|

Refrain:

G|---------------------------------------------------|
D|---------------------------------------------------|
A|---------------------------------------------------|
E|--2-2-2-2-2/4-4-4-4-4/5-5-5-5—5h7-7-7-7-7-7/12---0-|

Chorus:

G|-----------------------------|
D|-----------------------------|
A|--0—-4—-5555555---2222222----|
E|-----------------------------|

G|-----------------------------------------------------|
D|-----------------------------------------------------|
A|------------4-4-444-4-44h5-555555---222222-pause-22--|
E|--5-5-555-5------------------------------------------|

Bridge

G|---------------------------------------------|
D|---------------------------------------------|
A|--3333333/5-55555h7-77777—77-0h7-77-7h9—7/3--|
E|---------------------------------------------|

G|-------------------------------|
D|-----------------7-7/9---------|
A|--3333-5/3-55555--------7------|
E|--------------------------0----|

Repeat Chorus: (4x)


Key:
/ -slide up
  -slide down
h - hammer on
p -pull off
x -muted string
p.m. -palm mute
b -bend
Comments