Cueshe - Stay Chords & Tabs

 

Stay Chords & Tabs

Cueshe Chords & Tabs

Version: 1 Type: Bass Tab 0 ratings
1 star 2 stars 3 stars 4 stars 5 stars
comments

Stay Bass Tab

stay
cueshe
bass tab
standard tuning

intro:
G|------------------------|--------------------------|
D|------------------------|--------------------------|
A|------------------------|--------------------------|
E|--0-0--0-0--0-0--0-0--0-|--5-5--5-5--5-5--5-5------|

|-------------------------|------------------------|
|-------------------------|----------------/14-----|
|-------------------------|------------------------|
|--0-0--0-0--0-0--0-0--0--|-5-5--5-5--5-5----------|

verses:
|------------|
|------------| 4x
|------------|
|---0----5---|

pre-chorus
|-----------------|-----------------|-----------------|-----------------|
|-----------------|-----------------|-----------------|-----------------|
|-2-2-2-2-2-2-2-2-|-4-4-4-4-4-4-4-4-|-5-5-5-5-5-5-5-5-|-7-7-7-7-7-7-7-7-|
|-----------------|-----------------|-----------------|-----------------|
[ Tab from: http://www.guitartabs.cc/tabs/c/cueshe/stay_btab.html ]
chorus
|--------------------------|-------------------|
|--------------------------|-------------------|
|---------5-5-5-5-5-5-5-5--|-2-2-2-2-2-2-2-2---|
|--5-----------------------|-------------------|

|--------|--------|------------------|-------------------------|
|--------|--------|------------------|-------------------------|
|--------|-4-4-4--|-5-5-5-5-5-5-5-5--|-2-2-2-2-2-2-2-2---------|
|-5-5-5--|--------|------------------|-------------------------|

bridge:
|-----------------|-----------------|-----------------|-----------------|
|-----------------|-----------------|-----------------|-----------------|
|-3-3-3-3-3-3-3-3-|-5-5-5-5-5-5-5-5-|-7-7-7-7-7-7-7-7-|-7-7-7-7-7-7-7-7-|
|-----------------|-----------------|-----------------|-----------------|

|-----------------|-----------------|-----|
|-----------------|-----------------|-----|
|-3-3-3-3-3-3-3-3-|-5-5-5-5-5-5-5-5-|--7--|
|-----------------|-----------------|-----|

kayo na bahala sa sequence
Comments