Cueshe - Sorry Chords & Tabs

 

Sorry Chords & Tabs

Cueshe Chords & Tabs

Version: 4 Type: Tab 0 ratings
1 star 2 stars 3 stars 4 stars 5 stars
comments

Sorry Tab

   
 Title: Sorry
 Artist: Cueshé
 Album: Half empty, half full
 Track no.: 2
 Elapsed Time: 4:42
 Transcribed by: Allan John G. Amisola
 Date/Time:  Thur., Aug. 4, 2005  6:46 pm

 
       Para 'to sa lahat ng naging syota ko na pinaiyak ko... humihingi ako
                                  ng SORRY!!!


 Standard Tuning: EADGBe
 Recommended Chords:
   E - 022100
   A - 002200
   G#m - 466444


 [Intro]
    E-A
    E-A

    e|----------------------------|----------------------------|
    B|----------------------------|----------------------------|
    G|----------------------------|----------------------------|
    D|----------------------------|------9--7-----9--7-----7---|
    A|------9--7-----9--7-----7---|---7--------7--------9------|
    E|---7--------7--------9------|----------------------------|

 e|-------------------------------|--------------------------------|
 B|-------------------------------|------12--10-----12--10------9--|
 G|------11--9-----11--9------9---|---9----------9----------11-----|
 D|---9---------9---------11------|--------------------------------|
 A|-------------------------------|--------------------------------|
 E|-------------------------------|--------------------------------|


 [Verse 1]
    E-A
    E-A
    E-A
    E-A
  
   In life nothings certain
   You'll never know when it'll happen
   Some burn out while some fade away
   It doesn't matter we're heading that way
 
[Refrain]
    G#m-A
    G#m-A

  If I had the time
  I'll spend it with you

 [Verse 2]
    E-A
    E-A
    E-A
    E-A

  Time gets you old and weary
  Like a lifeless ordinary
  Some burn out while some fade away
  I don't want you to go
  I want you to stay

 [Refrain 2]
    G#m-A
    G#m-A, E

  If I could turn back the time
  I'd spend it with you

 [Chorus]
    A, E-A
       E-A
       E-A

  I want you to know
  (Even though you're gone)
  That I'm drowning in tears.
  I wish you were here
  (And hear me say)
  Believe me, I'm sorry

 [Interlude]
    E-A
    E-A

    e|----------------------------|----------------------------|
    B|----------------------------|----------------------------|
    G|----------------------------|----------------------------|
    D|----------------------------|------9--7-----9--7-----7---|
    A|------9--7-----9--7-----7---|---7--------7--------9------|
    E|---7--------7--------9------|----------------------------|
[ Tab from: http://www.guitartabs.cc/tabs/c/cueshe/sorry_tab_ver_4.html ]
 e|-------------------------------|--------------------------------|
 B|-------------------------------|------12--10-----12--10------9--|
 G|------11--9-----11--9------9---|---9----------9----------11-----|
 D|---9---------9---------11------|--------------------------------|
 A|-------------------------------|--------------------------------|
 E|-------------------------------|--------------------------------|


 [Verse 3]
    E-A
    E-A
    E-A
    E-A

  Feels like everything's undone
  Peace of mind still I haven't found
  And time will heal those broken mends
  I know it will come, but when will it end

 [Repeat Refrain 2]
 [Repeat Chorus]

 [Chorus 2]
    G#m-A
    G#m-A

  I want you to know
  I want you to know...

 [Repeat Interlude]
 [Repeat Refrain 2]
 [Repeat Chorus (2x)] 
 
    e|----------------------------|----------------------------|
    B|----------------------------|----------------------------|
    G|----------------------------|----------------------------|
    D|----------------------------|------9--7-----9--7-----7---|
    A|------9--7-----9--7-----7---|---7--------7--------9------|
    E|---7--------7--------9------|----------------------------|

 e|-------------------------------|--------------------------------|
 B|-------------------------------|------12--10-----12--10------9--|
 G|------11--9-----11--9------9---|---9----------9----------11-----|
 D|---9---------9---------11------|--------------------------------|
 A|-------------------------------|--------------------------------|
 E|-------------------------------|--------------------------------|

  I want you to know
  (Even though you're gone)
  That I'm drowning in tears.
  I wish you were here
  (And hear me say)
  Believe me, I'm sorry.


 [Outro]
    E-A
    E-A

    e|----------------------------|----------------------------|
    B|----------------------------|----------------------------|
    G|----------------------------|----------------------------|
    D|----------------------------|------9--7-----9--7-----7---|
    A|------9--7-----9--7-----7---|---7--------7--------9------|
    E|---7--------7--------9------|----------------------------|

    e|----------------------------|-------------------------------|
    B|----------------------------|-------------------------------|
    G|----------------------------|-------------------------------|
    D|----------------------------|------9--7-----9--7-----6------|
    A|------9--7-----9--7-----7---|---7--------7--------8-----7---|
    E|---7--------7--------9------|-------------------------------|


  #----------------------------------PLEASE NOTE---------------------------------#
  #This file is the author's own work and represents their interpretation of the #
  #song. You may only use this file for private study, scholarship, or research. #
  #------------------------------------------------------------------------------#
Comments