Cueshe - Sorry Chords & Tabs

 

Sorry Chords & Tabs

Cueshe Chords & Tabs

Version: 2 Type: Tab 0 ratings
1 star 2 stars 3 stars 4 stars 5 stars
comments

Sorry Tab

   
song:Sorry
Artist: Cueshe
Tabbed by: jR_23

intro: E-A 2x

Lead:

e|--------------------------------------------------------------|
B|--------------------------------------------------------------|
G|--------------------------------------------------------------|
D|--4--2-----4--2-----2------9--7-----9--7-----6----------------|
A|--------4--------4---------------9--------9-------------------|
E|--------------------------------------------------------------|

e|--------------------------------------------------------------|
B|--------------------------------------------------------------|
G|--11--9------11--9------9-------12--10------12--10------9-----|
D|---------11---------11------------------11----------11--------|
A|--------------------------------------------------------------|
E|--------------------------------------------------------------|

E : 022100
A5: 002200 or 577xxx
G#m:466444
Bm7:024422


Stanza: E-A5
In life nothings certain
You'll never know when it'll happen
Some burn out while some fade away
It doesn't matter we're heading that way

Refrain: G#m-A5
If I had the time
I'll spend it with you

Stanza: E-A5
Time gets you old and weary
Like a lifeless ordinary
Some burn out while some fade away
I don't want you to go
I want you to stay

Refrain: G#m-A5
If I could turn back the time
I'd spend it with you
[ Tab from: http://www.guitartabs.cc/tabs/c/cueshe/sorry_tab_ver_2.html ]
Chorus: E-A5
I want you to know
Even though you're gone
That I'm drowning in tears
I wish you were here
And hear me say
Believe me, I'm sorry

(play INTRO...)

Stanza: E-A5
Feels like everything's undone
Peace of mind still I haven't found
And time will heal those broken mends
I know it will come, but when will it end 

Refrain: G#m-A5
If I could turn back the time
I'd spend it with you

Chorus: E-A5
I want you to know
Even though you're gone
That I'm drowning in tears
I wish you were here
And hear me say
Believe me, I'm sorry

Bridge: Bm7-E-Bm7-A5
I want you to know 2x

Adlib: E-A
Refrain: G#m-A5
If I could turn back the time
I'd spend it with you

Chorus: E-A5
I want you to know
Even though you're gone
That I'm drowning in tears     2x
I wish you were here
And hear me say
Believe me, I'm sorry 

Ending:
Rhythm:E-A
Lead:
e|--------------------------------------------------------------|
B|--------------------------------------------------------------|
G|--------------------------------------------------------------|
D|--4--2-----4--2-----2------9--7-----9--7-----6----------------|	2x
A|--------4--------4---------------9--------9-------------------|
E|--------------------------------------------------------------|


E2 uLet mi..Jan Ronald Agbuya... a damer.. ehehe.. naadk aku sa cuEshE kya 2... soree...
Enjoi nio pgplay... sna mgs2han nio... gmwa n dn mi nung stay kso kulelat aku... ehehe
pki r8 nlng po.. tnx!,,, invite nio me fwndster.. ignition_JR@yahoo.com... ty...
dDc8 koh 2 ky... mMm... wag nlng! ehehe!
Comments