Cueshe - Sorry Chords & Tabs

 

Sorry Chords & Tabs

Cueshe Chords & Tabs

Version: 1 Type: Bass Tab 0 ratings
1 star 2 stars 3 stars 4 stars 5 stars
comments

Sorry Bass Tab

   
Song Name   : Sorry	
Band Name   : Cueshe
Tabbed By   : jdimpas@lexmark.com (Jan Michael Dimpas)
              Center for Industrial Technology & Enterprise(CITE)
 
			Please Rate!
            ----------------------------------
                          SORRY
            ----------------------------------


STANDARD TUNNING:

[INTRO]
 E-A2
 E-A2


 G|----------------------------|----------------------------|
 D|----------------------------|------9--7-----9--7-----7---|
 A|------9--7-----9--7-----7---|---7--------7--------9------|
 E|---7--------7--------9------|----------------------------|

 
 G|------11--9-----11--9------9---|------16--14-----16--14------14----|
 D|---9---------9---------11------|---14--------14----------16--------|
 A|-------------------------------|-----------------------------------|
 E|-------------------------------|-----------------------------------|


Verse I.
 
  E-A2
  E-A2


 G|-------------------------------|
 D|-------------------------------|
 A|---7---7---7-------------------|
 E|------------------5---5---5----|


Refrain:
  
  G#m-A2
  G#m-A2
 
 G|----------------------------|
 D|----------------------------|
 A|----------------------------|
 E|---44444444----55555555-----|


Verse II.

  E-A2
  E-A2


 G|-------------------------------|
 D|-------------------------------|
 A|---7---7---7-------------------|
 E|------------------5---5---5----|


Refrain:
  
  G#m-A2
  G#m-A2
 
 G|----------------------------|
 D|----------------------------|
 A|----------------------------|
 E|---44444444----55555555-----|


Chorus:

 (Pause--let guitar strum) 
  (E)-A2
   E-A2



 G|--------------------------|
 D|--------------------------|
 A|-------------7-7-7-7------|
 E|--5-5-5-5-----------------|


[Interlude]

 E-A2
 E-A2


 G|----------------------------|----------------------------|
 D|----------------------------|------9--7-----9--7-----7---|
 A|------9--7-----9--7-----7---|---7--------7--------9------|
 E|---7--------7--------9------|----------------------------|

 
 G|------11--9-----11--9------9---|------16--14-----16--14------14----|
 D|---9---------9---------11------|---14--------14----------16--------|
 A|-------------------------------|-----------------------------------|
 E|-------------------------------|-----------------------------------|


 Verse III.

  E-A2
  E-A2

[ Tab from: http://www.guitartabs.cc/tabs/c/cueshe/sorry_btab.html ]
 G|-------------------------------|
 D|-------------------------------|
 A|---7---7---7-------------------|
 E|------------------5---5---5----|


 Repeat Refrain:
 Repeat Chorus:


 I want you to know
 I want you to know...

 Solo part:


 G|----------------------------|----------------------------|
 D|----------------------------|------9--7-----9--7-----7---|
 A|------9--7-----9--7-----7---|---7--------7--------9------|
 E|---7--------7--------9------|----------------------------|

 
 G|------11--9-----11--9------9---|------16--14-----16--14------14----|
 D|---9---------9---------11------|---14--------14----------16--------|
 A|-------------------------------|-----------------------------------|
 E|-------------------------------|-----------------------------------|


 G|----------------------------|----------------------------|
 D|----------------------------|------9--7-----9--7-----7---|
 A|------9--7-----9--7-----7---|---7--------7--------9------|
 E|---7--------7--------9------|----------------------------|

 
 G|------11--9-----11--9------9---|------16--14-----16--14------14----|
 D|---9---------9---------11------|---14--------14----------16--------|
 A|-------------------------------|-----------------------------------|
 E|-------------------------------|-----------------------------------|



 Repeat Refrain:

 (1st part chorus):

 (Pause--let guitar strum) 
  (E)-A2
   E-A2


 G|--------------------------|
 D|--------------------------|
 A|-------------7-7-7-7------|
 E|--5-5-5-5-----------------|


 (2nd part chorus):
 
 G|----------------------------|----------------------------|
 D|----------------------------|------9--7-----9--7-----7---|
 A|------9--7-----9--7-----7---|---7--------7--------9------|
 E|---7--------7--------9------|----------------------------|

 
 G|------11--9-----11--9------9---|------16--14-----16--14------14----|
 D|---9---------9---------11------|---14--------14----------16--------|
 A|-------------------------------|-----------------------------------|
 E|-------------------------------|-----------------------------------|


 
[OUTRO]
   
   E-A2
   E-A2


 G|----------------------------|----------------------------|
 D|----------------------------|------9--7-----9--7-----7---|
 A|------9--7-----9--7-----7---|---7--------7--------9------|
 E|---7--------7--------9------|----------------------------|

 
 G|------11--9-----11--9------9---|------16--14-----16--14------14----|
 D|---9---------9---------11------|---14--------14----------16--------|
 A|-------------------------------|-----------------------------------|
 E|-------------------------------|-----------------------------------|


Please Rate this! Thanks. :-) see me at friendster: janmichael_dimpas2004@yahoo.com
Comments