Cueshe - 24 Hours Chords & Tabs

 

24 Hours Chords & Tabs

Cueshe Chords & Tabs

Version: 1 Type: Tab

24 Hours Tab

song: 24 hours
artist: cueshe
album: half empty half full
tabbed by: dennis villaflor
email: darkangel_awp029@yahoo.com 639165785995
tuning: EADGBe   h-hammer, ~-bend, p-pull off, r-release and let ring

intro:
        5X
E|---------------|---------------------------------------------|
A|---------------|---------------------------------------------|
D|-0-----0-------|-0-------------------------------------------|
G|---6-4---6-5---|---------------------------------------------|
B|---------------|----5h6p5-5-2h4--2-0h2-5h6p5-5-2h4--2-0h2~---|
e|---------------|---------------------------------------------|

verse:

E|-------------------------------------------------------------|
A|-------------------------------------------------------------|
D|-0-----------------------------------------------------------|
G|-------------------------------------------------------------|
B|----5h6p5-5-2h4-2-0-2r--0-0-2h3-2-4h5-4-6h7-6~-7h8-----------|
e|-------------------------------------------------------------|

E|-------------------------------------------------------------|
A|-------------------------------------------------------------|
D|-------------------------------------------------------------|
G|-------------------5----------7------------------------------|
B|-5h6p5-5-2h4-2-0-2----5h6p5-5--------------------------------|
e|-------------------------------------------------------------|

chorus:
E|------------2-2-2-2-2-4-4-4-4-4-5-5-5-5-5--------------------|
A|--2-2-2-2-2-2-2-2-2-2-4-4-4-4-4-7-7-7-7-7--------------------|
D|--2-2-2-2-2-4-4-4-4-4-6-6-6-6-6-7-7-7-7-7--------------------|play 2x
G|--1-1-1-1-1-4-4-4-4-4-6-6-6-6-6-6-6-6-6-6--------------------|
B|------------4-4-4-4-4-5-5-5-5-5-5-5-5-5-5--------------------|
e|------------2-2-2-2-2-4-4-4-4-4-5-5-5-5-5--------------------|

E|--2-2-2-2--5-------------------------------------------------|
A|--4-4-4-4--7-------------------------------------------------|
D|--4-4-4-4--7-------------------------------------------------|
G|--2-2-2-2--6-------------------------------------------------|
B|--2-2-2-2--5-------------------------------------------------|
e|--2-2-2-2--5-------------------------------------------------|

Ad lib:

E|-------------------------------------------------------------|
A|-------------------------------------------------------------|
D|--0----------------------------------------------------------|
G|-------------------------------------------------------------|
B|-----5h6p5-5-2h4-2-0-2~--0-0-0-2h3-2-4h5-4-6h7-6~-7h8--------|
e|-------------------------------------------------------------|
[ Tab from: http://www.guitartabs.cc/tabs/c/cueshe/24_hours_tab.html ]
E|-------------------------------------------------------------|
A|-------------------------------------------------------------|
D|-------------------------------------------------------------|
G|----------------------------7h9---------9-7------------------|
B|--11h12p11-11-9h10-9-7h8-7------8-7h8p7-----8h12-11~---------|
e|-------------------------------------------------------------|

Fill in: guitar(clean)

E|-------------------------------------------------------------|
A|-------------------------------------------------------------|
D|-------------------------------------------------------------|
G|--------4-------3-2------------------------------------------|
B|--3h4p3---2h3p2----------------------------------------------|
e|-------------------------------------------------------------|

refrain:

E|------------2-2-2-2-2-2-2-2-2-2-2-2-2-2-2--------------------|
A|--2-2-2-2-2-2-2-2-2-2-4-4-4-4-4-4-4-4-4-4--------------------|
D|--2-2-2-2-2-4-4-4-4-4-4-4-4-4-4-4-4-4-4-4--------------------|play 2x
G|--1-1-1-1-1-4-4-4-4-4-2-2-2-2-2-2-2-2-2-2--------------------|
B|------------4-4-4-4-4-2-2-2-2-2-2-2-2-2-2--------------------|
e|------------2-2-2-2-2-2-2-2-2-2-2-2-2-2-2--------------------|

E|------------2-2-2-2-2-2-2-2-2-5--5-2--2-5--------------------|
A|--2-2-2-2-2-2-2-2-2-2-4-4-4-4-7--7-4--4-7--------------------|
D|--2-2-2-2-2-4-4-4-4-4-4-4-4-4-7--7-4--4-7--------------------|
G|--1-1-1-1-1-4-4-4-4-4-2-2-2-2-6--6-2--2-6--------------------|
B|------------4-4-4-4-4-2-2-2-2-5--5-2--2-5--------------------|
e|------------2-2-2-2-2-2-2-2-2-5--5-2--2-5--------------------|

outtro: play 'til fade..

E|-------------------------------------------------------------|
A|-------------------------------------------------------------|
D|--0-0-0------------------------------------------------------|
G|--5-5-5....--------------------------------------------------|
B|-------------------------------------------------------------|
e|-------------------------------------------------------------|

song sequence:

intro:

verse 1:
i've been lying here and wide awake
'til the night dies out and day to break
every minute seems like careless hours when i'm with you

verse 2:
i miss your eyes your smile and lovely face
i can't forget your sweet embrace
we both could share our endless dreams if you were here

chorus:
it doesn't matter if i'm alone 
i got a place i call my own
i don't care if you're away coz i know you'll be back someday..someday

Ad lib:

verse 3:
i guess it's better if we were off that way
we'll find ourselves and come what may
if i could have one wish then i will beg for you to stay

repeat chorus:

refrain:
ooohhh..

verse 4:
i've been lying here and wide awake
the sun has gone for moon to take
i never thought that we could end like this
wish you were here

fill in:

repeat chorus:

outtro:

[for comments and corrections please send an email to
darkangel_awp029@yahoo.com..suggestions would be very much welcome]

hope you'll like this one!
thank you for reading my piece...GODSPEED!!!