Crystal Method - Born Too Slow Chords & Tabs

 

Born Too Slow Chords & Tabs

Crystal Method Chords & Tabs

Version: 1 Type: Tab 0 ratings
1 star 2 stars 3 stars 4 stars 5 stars
comments

Born Too Slow Tab

   
-------------------------------------------------------------------------------
			     Born Too Slow - The Crystal Method
-------------------------------------------------------------------------------
Tabbed by: Keri
AIM: Roxysnow88

Tuning: standard


** this may not be the exact way to play it but its sounds pretty good. i dont think most 
of it is meant for guitar, and they use crazy techno effects, but i tried to match the notes on guitar. 
its a good song. so enjoy. 



e|---------------------------------------------------------------------------|
B|---------------------------------------------------------------------------|
G|---------------------------------------------------------------------------|
D|----4-4----4-4-4-4-4----7-4---4-7-4--10-10---------------------------------|
A|----4-4----4-4-4-4-4----7-4---4-7-4--10-10---------------------------------|
E|----2-2----2-2-2-2-2----5-2---2-5-2--8--8----------------------------------|

or 

e|---------------------------------------------------------------------------|
B|---------------------------------------------------------------------------|
G|------------------------------------(slide up to or around here)-----------|
D|----4-4----4-4-4-4-4----7-4---4-7-4--7/-10---------------------------------|
A|----4-4----4-4-4-4-4----7-4---4-7-4--7/-10---------------------------------|
E|----2-2----2-2-2-2-2----5-2---2-5-2--5/--8---------------------------------|


(youll get the pattern right, if you just listen for it.)

then there is this little thingy:
[ Tab from: http://www.guitartabs.cc/tabs/c/crystal_method/born_too_slow_tab.html ]
e|--/14--------/16-----(kind of tremolo each note or mess around near it or somethin)-|
B|--/14--------/16-----------------------------------------------------------|
G|---------------------------------------------------------------------------|
D|---------------------------------------------------------------------------|
A|---------------------------------------------------------------------------|
E|---------------------------------------------------------------------------|

then (using a chorus with overdrive effect at this part sounds good):
e|---------------------------------------------------------------------------|
B|---------------------------------------------------------------------------|
G|---11---13-14------------------------11--13--14----------------------------|
D|----------------11---13-14------------------------11--14-------------------|
A|----------------------------14----------------------------14---------------|
E|---------------------------------------------------------------------------|

(guitar 2....very fuzzy and low)
e|---------------------------------------------------------------------------|
B|---------------------------------------------------------------------------|
G|-------------(slide up strings while lightly PM-ing it)--------------------|
D|--4-4-4---/----------------------------------------------------------------|
A|--4-4-4---/----------------------------------------------------------------|
E|--2-2-2---/----------------------------------------------------------------|


once you got it down, just put the pieces together and youll get it. 

| PM palm mute
| /  slide up
| \  slide down
| h  hammer-on
| p  pull-off
| ~  vibrato
| +  harmonic
| x  Mute note
===============================================================================
Comments