Cryptopsy - Benedictine Convulsions Chords & Tabs

 

Benedictine Convulsions Chords & Tabs

Cryptopsy Chords & Tabs

Version: 1 Type: Tab 0 ratings
1 star 2 stars 3 stars 4 stars 5 stars
comments

Benedictine Convulsions Tab

   
BENEDICTINE CONVULSIONS - Cryptopsy - None So Vile

Tuning (Low - High): B E A D F# B
pml - light pm;  pm - moderate pm;  pmh - heavy pm


Intro (A)
|-------------------------------------------------------------------------|
|-3-----------------6-----1-----------------6-----3-----------------6-----|
|-1-----5--4--3--4--4-----1-----5--4--3--4--4-----1-----5--4--3--4--4-----|
|-------3--2--1--2--------------3--2--1--2--------------3--2--1--2--------|
        pm..........            pm..........            pm..........

Fill					   Drum Roll
|------------------------------|-----------|
|-------------------2h3p2------|-----------|
|------------------------------|-----------|
|------------------------------|-----------|
|-3-----6-----5----------6-----|-----------|
|-1-----4-----3----------4-----|-----------|
  pm................     pm....

B						   Play 3 Times
|-------------------------------------------------|
|-------------3-----6-----2-----5-----6-----------|
|-2-----4--4--1-----4-----0-----3-----4-----7--7--|
|-0-----------------------------------------------|
        pm....            pmh...

C			Play 2 Times
|-----------------------|
|-------------4--/7-\---|
|-3--2-----2--3--/6-\---|
|-1--0-----0------------|
  pm..........

Repeat B x 3
Repeat C x 2
Repeat B x 3
Repeat C x 22

D								   Play 8 Times
|-------------------------------------------------------------|
|-------------------------------------------------------------|
|-------------------------------------------------------------|
|-0---0-0-0-------0-0-0---0---1-1-1---1-1-1---3-3-3---4-4-4---|
  pm..........................................................

Repeat B x 3

Fill
|---------------------------------|
|-3-3-----5-5-4-4-----3-3-----1-1-|
|-----3-3---------3-3-----2-2-----|
|---------------------------------|
  pm..............................

Repeat B x 3

A'						   Play 4 Times
|-------------------------------------------------|
|-3-----------------6-----1-----------------6-----|
|-1-----5--4--3--4--4-----1-----5--4--3--4--4-----|
|-------3--2--1--2--------------3--2--1--2--------|
        pm..........            pm..........
[ Tab from: http://www.guitartabs.cc/tabs/c/cryptopsy/benedictine_convulsions_tab.html ]
Fill
|-2--------3--------|--------------|
|-2--------3--------|--------------|
|-0--------1--------|--------------|
|-------------------|-x-x-\-\-\----|
  pm.....

Repeat D x 8

E1
|----------------------------------------------------|
|-2-2-2-2-2-2-2-2-----------------5--------9---------|
|-----------------3-3-3-3-3-3-3-3-6--------7----7----|
|-----------------------------------------------8----|
  pm..............................

E2
|----------------------------------------------------|
|-2-2-2-2-2-2-2-2-3-3-3-3-3-3-3-3-5--------9---------|
|-----------------3-3-3-3-3-3-3-3-6--------7----7----|
|-----------------------------------------------8----|
  pm..............................

Repeat (E1 + E2) x 7

F1
|------------------3h4p3-----------3-3-4-4-----4-4-5-5-|
|---------5--4--5--------6-----3-3---------4-4---------|
|---------3--2--3--------4-----------------------------|
|-2/3-3-3----------------------------------------------|
  pm......pmh......            pml.....................

F2
|------------------3h4p3-----------3-3-4-4-----4-4-5-5-|
|---------5--4--5--------------3-3---------4-4---------|
|---------3--2--3--------6-----------------------------|
|-2/3-3-3----------------4-----------------------------|
  pm......pmh......            pml.....................

Repeat (F1 + F2) x 2

G						Play 2 Times
|-----3-3-4-4-----4-4-5-5-----5-5-|
|-3-3---------4-4---------4-4-----|
|---------------------------------|
|---------------------------------|
  pml.............................

Repeat (F1 + F2) x 2 ,  G x 3

Fill
|----------------------|
|-------5--4--5--------|
|-5-----3--2--3--4-----|
|-3--------------2-----|
        pmh......

Repeat G x 3
Pause

H		   Play 4 Times
|-------------------------|
|-------------------------|
|----1--2-----2--3-----3--|
|-1--------2--------2-----|

H'		   Play 4 Times
|-------------------------|
|-------------------------|
|----1--2-----2--3-----3--|
|-1--------2--------2-----|
  pm......................

Repeat (F1 + F2)
Repeat G x 3
Repeat C x 18

C'			Play 3 Times
|-----------------------|
|-------------4--/7-----|
|-3--2--------3--/6-----|
|-1--0------------------|
  pm..........

Outro
|----------|------|-------------|
|----------|------|-------------|
|-3--2--2--|------|-7--8--2-----|
|-1--0--0--|------|-5--6--0-----|


The End.

Erik
----------------------
erik_heino@hotmail.com
Comments